Oops, an error
Loading. Please wait.
We have an official According To You tab made by UG professional guitarists. Check out the tab »
×
24,650 views 3 this week
3 commentsread comments
1 2 3 4 5
x 8
add to favorites
×
Save as Personal and add changes to this tab that will be seen only by you. Learn more ›
×
You can save this tab as Personal to edit and correct it or add notes. All changes will be seen only by you. Learn more »
launch autoscroll
font size
0
reset
how to read this tab
guitar tuner
edit
Autoscroll
slow
fast
+/-
esc
set tempo
stop
Difficulty
intermediate
Theres already some pretty good tabs for the main solo so i thought id just tab a
few of the licks she puts in.
fb= full bend
hrf= half bend,release, then full bend
~= vibrato
h= hammer on
xh= cross string hammer on
p= pull off
/=slide

1. That scale she puts in at the end of the first verse.
e------------------------------------13-15hrf~-|
B-----------------------------13-15------------|
G-----------------------13-15------------------|
D----------------13-15-------------------------|
A-------13-14-15-------------------------------|
E--13-15---------------------------------------|

2. The little lick she puts in at the end of the first chorus.
e---------------------------------13h15p13----15fb~-|
B----------------------------13h15--------xh15------|
G-------10h12p10----10h12fb~------------------------|
D--10h12--------xh12--------------------------------|
A---------------------------------------------------|
E---------------------------------------------------|

3. The other lick she does in the second verse.
e------------------------------------------------------------/15fb~-|
B-13p10h13p10h13p10h13p10h13p10h13p10h13p10h13p10h13p10h13p10-------|
G-------------------------------------------------------------------|
D-------------------------------------------------------------------|
A-------------------------------------------------------------------|
E-------------------------------------------------------------------|

Hope This Helps

            
            
Suggest correction
Creating personal tab
Creating personal tab
You can edit any tab online and save it as your Personal.

You can edit, replace or remove any tab part or add personal notes – all changes will be seen only by you.

Personal tabs can be accessed anytime from any device, even offline.
Learn more »
comments
print report bad tab
3 comments total.
0 reply
baari_95 10 Mar 10, 2010 10:13 PM

what the helllll.........it is not correct man...

0 reply
grumpops 34 Sep 28, 2010 12:10 PM

Try this...

The break after first verse riff starts on the EIGHTH fret..not 13. Try this...Sorry I had to put in notes but I don't have the characters on the keyboard to show slides and bends.

----------------13--15 (bend up full step)-----------------
----------------13--15-----------------------------------------
------10---12-(slide>14-------------------------------------
------10-11-12------------------------------------------------
8-9-10 (slide>12---------------------------------------------
8--10-----------------------------------------------------------


grumpops@comcast.net

0 reply
grumpops 34 Sep 28, 2010 12:13 PM

Holy crap...that's not at all what I posted...let's try this again shall we?



-----------13--15 (bend up full step)-----------------
-----------13--15-------------------------------------
----10---12-(slide>14---------------------------------
----10-11-12------------------------------------------
8-9-10(slide>12--------------------------------------
8---10-------------------------------------------------

grumpops@comcast.net

guest
Wanna post a correction for this tab? Suggest correction