Oops, an error
Loading. Please wait.

According To You Tab

version 1
version 1

Interactive

61,325 views 6 this week
1 commentread comment
1 2 3 4 5
worth learning
x 6
add to favorites
launch autoscroll
font size
0
reset
how to read this tab
guitar tuner
Tab Pro tools
  • play this tab
  • loop segment
  • change instrument
  • show fretboard
  • metronome
×
Best way to learn
"According To You"
Autoscroll
slow
fast
+/-
esc
set tempo
stop
Contributor
 
e--
B--
G--
D--   Soon new tab with a super enhanced and sound
A--
E--



 Chorus
 
 -----------------------------------------------------------|
 -----------------------------------------------------------|
 -------------------------------999999999-------------------|
 ---555555555-----777777777-----999999999-----7777777777----|
 ---555555555-----777777777-----777777777-----7777777777----|
 ---333333333-----555555555-------------------5555555555----|

 ---------------------
 ---------------------
 --------------------- 
 --3x3x3x3--5---------
 --3x3x3x3--5---------
 --1x1x1x1--3---------

 Riff 1 Repeat 

 Chorus Repeat 

  Solo....
e------17Full---17--15---14h15-----------------|
B------------------------------17--------------|
G----------------------------------------------|
D----------------------------------------------|
A----------------------------------------------|
E----------------------------------------------|

e----------------------------------------------|
B---10-7---------------------------------------|
G--------10-7----------------------------------|
D-9------------9-8-----9-8-7--5F---------------|
A-----------------9-8-----------------5F-7-----|
E---------------------------------7R6----------|

e-10-8-6-10-8-6-10-8-6-10-8-6-10-8-6-10-8-6-10-|
B----------------------------------------------|
G----------------------------------------------|
D----------------------------------------------|
A----------------------------------------------|
E----------------------------------------------|

e-12-10-8-12-10-8-12-10-8-12-10-8-12-10-8-12-10-|
B-----------------------------------------------|
G-----------------------------------------------|
D-----------------------------------------------|
A-----------------------------------------------|
E-----------------------------------------------|

e-13-12-10-13-12-10-13-12-10-13-12-10-13-12-10-|
B----------------------------------------------|
G----------------------------------------------|
D----------------------------------------------|
A----------------------------------------------|
E----------------------------------------------|

e-13-12-10-15-12-10-13-12-10-15-12-10-17-12-10-18-12-10-17-12-10-15-12-10--|
B--------------------------------------------------------------------------|
G--------------------------------------------------------------------------|
D--------------------------------------------------------------------------|
A--------------------------------------------------------------------------|
E--------------------------------------------------------------------------|

 Chorus Repeat

End Part

------------------------------------------------|
------------------------------------------------|
------------------------------------------------|
--9999999--7-----------9999999------------------|
--9999999--7---x3------9999999------------------|
--7777777--5-----------7777777------------------|

H=Hammer on
F=Full
P=Pull off
R=Rapid


have fun playing guitar
XDXDXDXD
comments
print report bad tab
1 comment total.
0 reply
ericpaquette wrote on March 18 2010, 09:42 am

way off the intro to the solo is at least the finger tappinjg isnt that bad

I want to post or [tab]
guest
You may want to rate the tab now too:
select rating
Please do not post tabs as comments. Select "correction" instead!