Oops, an error
Loading. Please wait.
We have an official According To You tab made by UG professional guitarists. Check out the tab »
×
30,387 views 3 this week
2 commentsread comments
1 2 3 4 5
x 12
add to favorites
×
Save as Personal and add changes to this tab that will be seen only by you. Learn more ›
×
You can save this tab as Personal to edit and correct it or add notes. All changes will be seen only by you. Learn more »
launch autoscroll
font size
0
reset
how to read this tab
guitar tuner
edit
Autoscroll
slow
fast
+/-
esc
set tempo
stop
Author
----------------------------------------------------------------------------
                             According to you - Orianthi
----------------------------------------------------------------------------
Tabbed by: Kevin =D
Email: Just make ur own changes, i kno its not 100% right but its what i got! please 
this is really my first tab and i thought it should be something a little challenging  :D

Tuning: Drop D

Verse 1:

e|-------|------|-----|-----|----------------------------------------------|
B|-------|------|-----|-----|----------------------------------------------|
G|-------|--5---|--7--|-----|----------------------------------------------|
D|---3---|--5---|--7--|--8--|-repeat 3x------------------------------------|
A|---3---|--3---|--5--|--8--|----------------------------------------------|
D|---3---|------|-----|--8--|----------------------------------------------|
    **Palm Mute**

e|-------|------|--------|-------------------------------------13-14-15-15b|
B|-------|------|-------------------------------------13-14-15-------------|
G|-------|--5---|----------------------------13-14-15----------------------|
D|---3---|--5---|-------------------13-14-15-------------------------------|
A|---3---|--3---|----------13-14-15----------------------------------------|
D|---3---|------|-13-14-15-------------------------------------------------|
                      **Tremolo picking Fast**

Chorus:

e|-----|------|-----|-----|-----------|
B|-----|------|-----|-----|-----------|
G|-----|------|-----|-----|-----------|
D|--8--|--10--|--0--|--5--|-repeat 2x-|
A|--8--|--10--|--0--|--5--|-----------|
D|--8--|--10--|--0--|--5--|-----------|


e|------------|-----------|--------------------------------|
B|------------|-----------|--------------------------------|
G|--9--9/10/9-|-repeat 3x-|-5-5-5--9-9/10/9-9/10/14/17/21--|
D|--x--x/x-/x-|-----------|-x-x-x--x-x/x-/x-x/x-/x-/x-/x---|
A|--7--7/8-/7-|-----------|-3-3-3--7-7/8-/7-7/8-/12/15/19--|
D|---------------------------------------------------------|
                    *breakdown of chorus*

e|-----------------------------------------------13-14-15-13----15b------|
B|--------------------------------------13-14-15-------------15----------|
G|----------10-11-12-10-------------12b----------------------------------|
D|--10-11-12------------12-10-11-12--------------------------------------|
A|-----------------------------------------------------------------------|
D|-----------------------------------------------------------------------|
            *interlude solo before verse 2*

Verse 2:

e|-------|------|-----|-----|----------------------------------------------|
B|-------|------|-----|-----|----------------------------------------------|
G|-------|--5---|--7--|-----|----------------------------------------------|
D|---3---|--5---|--7--|--8--|-repeat 3x------------------------------------|
A|---3---|--3---|--5--|--8--|----------------------------------------------|
D|---3---|------|-----|--8--|----------------------------------------------|
    **Palm Mute**

e|------------|-15b--|
B|--11h13p11--|------|
G|------------|------|
D|------------|------|
A|------------|------|
D|------------|------|
     (tap)
*interlude between verse and chorus*

Chorus:

e|-----|------|-----|-----|-----------|
B|-----|------|-----|-----|-----------|
G|-----|------|-----|-----|-----------|
D|--8--|--10--|--0--|--5--|-repeat 2x-|
A|--8--|--10--|--0--|--5--|-----------|
D|--8--|--10--|--0--|--5--|-----------|


e|------------|-----------|--------------------------------|
B|------------|-----------|--------------------------------|
G|--9--9/10/9-|-repeat 3x-|-5-5-5--9-9/10/9-9/10/14/17/21--|
D|--x--x/x-/x-|-----------|-x-x-x--x-x/x-/x-x/x-/x-/x-/x---|
A|--7--7/8-/7-|-----------|-3-3-3--7-7/8-/7-7/8-/12/15/19--|
D|---------------------------------------------------------|
                    *breakdown of chorus*

Bridge

e|-----------------------------------------------------------------|
B|-----------------------------------------------------------------|
G|----------------------6------------------------------------------|
D|--7-8-7~-7-8-7~-7-8-7---7-8-7~-7-8-7-7-8-7~----------------------|
A|-----------------------------------------------------------------|
D|-----------------------------------------------------------------|

Solo:

e|-----------------------------------------------13-14-15-15b--15-14-12---|
B|--------------------------------------13-14-15--------------------------|
G|-----------------------------13-14-15-----------------------------------|
D|--------------------13-14-15--------------------------------------------|
A|-----------13-14-15-----------------------------------------------------|
D|-/13-14-15--------------------------------------------------------------|
            **Tremolo picking**


e|-13p12-10-5-6-8-6-5--5--------------------------------------------------|
B|-------------------8---8--6--5---5--------------------------------------|
G|-------------------------------7---7-5--5-------------------------------|
D|--------------------------------------7--7-5/3-5------------------------|
A|-------------------------------------------------5(pitch harmonic)------|
D|------------------------------------------------------------------------|

Taping solo (listen for tap changes)

e|-10p6h8--|-12p8h10--|-13p10h12--|-15p10h12h17p10h12h18p10h12h17p10h12h15-|
B|---------|----------|-----------|----------------------------------------|
G|---------|----------|-----------|----------------------------------------|
D|---------|----------|-----------|----------------------------------------|
A|---------|----------|-----------|----------------------------------------|
D|---------|----------|-----------|----------------------------------------|

e|-p10h12h13p10h12h15p10h12h13p10~~-|
B|----------------------------------|
G|----------------------------------|
D|----------------------------------|
A|----------------------------------|
D|----------------------------------|

Chorus:

e|-----|------|-----|-17b-17-15-14-15p14---------------|
B|-----|------|-----|-------------------17b------------|
G|-----|------|-----|----------------------------------|
D|--8--|--10--|--0--|----------------------------------|
A|--8--|--10--|--0--|----------------------------------|
D|--8--|--10--|--0--|----------------------------------|

e|-----|------|-----|-19b-19-17-16-17p16------------|
B|-----|------|-----|-------------------19b---------|
G|-----|------|-----|-------------------------------|
D|--8--|--10--|--0--|-------------------------------|
A|--8--|--10--|--0--|-------------------------------|
D|--8--|--10--|--0--|-------------------------------|


e|------------|-----------|--------------------------------|
B|------------|-----------|--------------------------------|
G|--9--9/10/9-|-repeat 3x-|-5-5-5--9-9/10/9-9/10/14/17/21--|
D|--x--x/x-/x-|-----------|-x-x-x--x-x/x-/x-x/x-/x-/x-/x---|
A|--7--7/8-/7-|-----------|-3-3-3--7-7/8-/7-7/8-/12/15/19--|
D|---------------------------------------------------------|
                    *breakdown of chorus*

e|------------------21b-(whammy bar)------|
B|----------------------------------------|
G|----------------------------------------|
D|--0-------------------------------------|
A|--0--(whammy Bar)-----------------------|
D|--0-------------------------------------|

Acoustic outro (clean)(tabbed for Drop d tuning)

e|-----------------------------------|
B|-----------------------------------|
G|--------------7-----7-----5-----5--|
D|-----3----3--7----7-----5-----5----|
A|---3----3---5---5-----3-----3------|
D|-3----3----------------------------|


************************************

| /   slide up
| \   slide down
| h   hammer-on
| p   pull-off
| ~   vibrato
| +   harmonic
| x   Mute note
| b   Bend
| pb  Pre-bend
| br  Bend release
| pbr Pre-bend release
| brb Bend release bend

************************************

            
            
Suggest correction
Creating personal tab
Creating personal tab
You can edit any tab online and save it as your Personal.

You can edit, replace or remove any tab part or add personal notes – all changes will be seen only by you.

Personal tabs can be accessed anytime from any device, even offline.
Learn more »
comments
print report bad tab
2 comments total.
0 reply
Brad55 10 May 16, 2011 11:45 PM

Guitar needs to be tuned down a whole step(D,G,C,F,A,D), not Drop D. http://www.youtube.com/watch?v=ZOZyKaWY8Go The video is of Orianthi showing how to play it.

0 reply
Archfiend06 33 Mar 03, 2013 09:52 AM

Sounds right to me. :P 5 stars
He is right it is tuned in D standard but the rest of her songs (most of them anyways) are in drop D and standard so yea :P keep it up.

guest
You may want to rate the tab now too:
select rating
Wanna post a correction for this tab? Suggest correction