Oops, an error
Loading. Please wait.

According To You bass

version 4
version 4

Whole song

Interactive

2,176 views 1 this week
2 commentsread comments
1 2 3 4 5
1 last vote to show rating
add to favorites
×
Save as Personal and add changes to this tab that will be seen only by you. Learn more ›
×
You can save this tab as Personal to edit and correct it or add notes. All changes will be seen only by you. Learn more »
launch autoscroll
font size
0
reset
guitar tuner
edit
Autoscroll
slow
fast
+/-
esc
set tempo
stop
Author
Difficulty
Name:Chase Henderson
Tuning:Standard
Bassist beware, this is my first tab
Verse 1:
G|-----------------------------------------------------------------------------|
D|-----------------------------------------------------------------------------|
A|8-8-8-8-8-8-8-8--------------------------------------------------------------|
E|----------------8-8-8-8-8-8-8-8-10-10-10-10-10-10-10-10-6-6-6-6-6-6-6-6------|
  Repeat x3

G|-----------------------------------------------------------|
D|--------------------------------------------------------5--|
A|8-8-8-8-8-8-8-8--------------------------------------------|
E|----------------8-8-8-8-8-8-8-8-10-10-10-10-10-10-10-10----| (hold until chorus)
Chorus:
G|-----------------------------------------------------------------------------|
D|-----------------------------------------------------------------------------|
A|--------------------------------5-5-5-5-5-5-5-5-7-7-7-7-7-7-7-7--------------|
E|6-6-6-6-6-6-6-6-8-8-8-8-8-8-8-8----------------------------------------------|
  Repeat x2
G|-----------------------------------------------------------------------------|
D|-----------------------------------------------------------------------------|
A|-----------------------------------------------------------------------------|
E|6-6-6-6-6-6-6-6-8-8-8-8-8-8-8-8-5-5-5-5-5-5-5-5-3-3-3-3-3-3-3-3--------------|

G|-----------------------------------------------------------------------------|
D|-----------------------------------------------------------------------------|
A|-----------------------------------------------------------------------------|
E|6--6--6--6--8 (hold until solo)----------------------------------------------|
Dont repeat in second chorus
Solo:
G|-----------------------------------------------------------------------------|
D|-----------------------------------------------------------------------------|
A|1-1-1-1-----1-1-1-1----------------------------------------------------------|
E|--------1--------------------------------------------------------------------|

Verse 2:
G|-----------------------------------------------------------------------------|
D|-----------------------------------------------------------------------------|
A|8-8-8-8-8-8-8-8--------------------------------------------------------------|
E|----------------8-8-8-8-8-8-8-8-10-10-10-10-10-10-10-10-6-6-6-6-6-6-6-6------|
  Repeat x3

G|-----------------------------------------------------------|
D|--------------------------------------------------------5--|
A|8-8-8-8-8-8-8-8--------------------------------------------|
E|----------------8-8-8-8-8-8-8-8-10-10-10-10-10-10-10-10----| (hold until chorus)

 Chorus 2:
G|-----------------------------------------------------------------------------|
D|-----------------------------------------------------------------------------|
A|--------------------------------5-5-5-5-5-5-5-5-7-7-7-7-7-7-7-7--------------|
E|6-6-6-6-6-6-6-6-8-8-8-8-8-8-8-8----------------------------------------------|
  Repeat x2
G|-----------------------------------------------------------------------------|
D|-----------------------------------------------------------------------------|
A|-----------------------------------------------------------------------------|
E|6-6-6-6-6-6-6-6-8-8-8-8-8-8-8-8-10-10-10-10-10-10-10-10-3-3-3-3-3-3-3-3------|

G|-----------------------------------------------------------------------------|
D|-----------------------------------------------------------------------------|
A|-----------------------------------------------------------------------------|
E|6--6--6--6--8 (hold until bridge)--------------------------------------------|
  Bridge:
G|-----------------------------------------------------------------------------|
D|0-0-0-0-0-0-0-0--------------------------------------------------------------|
A|----------------1-1-1-1-1-1-1-1-------------------0-0-0-0-0-0-0-0------------|
E|--------------------------------1-1-1-1-1-1-1-1-1----------------------------|

G|-----------------------------------------------------------------------------|
D|0-0-0-0----------------------------------------------------------------------|
A|--------1---1---1---1---3-3-3-3----------------------------------------------|
E|-----------------------------------------------------------------------------|
  Solo 2
G|-----------------------------------------------------------------------------|
D|-----------------------------------------------------------------------------|
A|-----------------------------------------------------------------------------|
E|6-6-6-6-6-6-6-6-8-8-8-8-8-8-8-8-10-10-10-10-10-10-10-10-3-3-3-3-3-3-3-3------|
  Verse 3
G|-----------------------------------------------------------------------------|
D|-----------------------------------------------------------------------------|
A|8----------------------------------------------------------------------------|
E|------8-----10---------------------------------------------------------------|
  Chorus 3
G|-----------------------------------------------------------------------------|
D|-----------------------------------------------------------------------------|
A|--------------------------------5-5-5-5-5-5-5-5-7-7-7-7-7-7-7-7--------------|
E|6-6-6-6-6-6-6-6-8-8-8-8-8-8-8-8----------------------------------------------|
  Repeat x2
G|-----------------------------------------------------------------------------|
D|-----------------------------------------------------------------------------|
A|-----------------------------------------------------------------------------|
E|6-6-6-6-6-6-6-6-8-8-8-8-8-8-8-8-10-10-10-10-10-10-10-10-3-3-3-3-3-3-3-3------|

G|-----------------------------------------------------------------------------|
D|-----------------------------------------------------------------------------|
A|-----------------------------------------------------------------------------|
E|6--6--6--6--8----------------------------------------------------------------|

After all that, just do some slides up and down the neck on the E string until the 
acoustic part starts
Hope you rate this well!!

            
            
Suggest correction
Creating personal tab
Creating personal tab
You can edit any tab online and save it as your Personal.

You can edit, replace or remove any tab part or add personal notes – all changes will be seen only by you.

Personal tabs can be accessed anytime from any device, even offline.
Learn more »
Give kudos to tab author, rate the tab!
1 2 3 4 5
comments
print report bad tab
2 comments total.
0 reply
Muzik_Krazi 10 Feb 08, 2011 05:30 PM

I didn't know you posted something!!! IM PROUD!!!

0 reply
kayeknox 10 Jul 04, 2014 04:18 AM

sounds perfect, the only thing I'd change is, in the chorus, instead of playing 7s on the A string, it sounds so much better if you play 3s on the E string.

5 stars :)

guest
You may want to rate the tab now too:
select rating
Wanna post a correction for this tab? Suggest correction