Oops, an error
Loading. Please wait.

Courage Tab

version 1
version 1

Solo

Whole song

1,028 views 9 this week
no commentswrite comment
1 2 3 4 5
accurate
x 1
add to favorites
launch autoscroll
font size
0
reset
how to read this tab
guitar tuner
Tab Pro tools
  • play this tab
  • loop segment
  • change instrument
  • show fretboard
  • metronome
Autoscroll
slow
fast
+/-
esc
set tempo
stop
Contributor
h: hammer-on
p: pull-off
b: bend
r: release bend
/: slide up
\: slide down

Ringing riff that plays throughout majority of song:
e---------------|
B---13----------|
G-----12--------|
D---------------|
A---------------|
E---------------|



C
Take all my vicious words

                   G         C
And turn them into something good


Take all my preconceptions

                     G    C
And let the truth be understood

     Dm     G      C
Take all my prized possessions

          Dm   G      C
And leave only what I need

     Dm     G         C
Take all my pieces of doubt

           Dm        G    C
And let me be what's underneath


CHORUS

F       C       G      C
Courage is when you're afraid

        F       C      G  C
But you keep on moving anyway

F       C       G         C
Courage is when you're in pain

        F       C      G  C
But you keep on living anyway



VERSE 2

Am G          F     Em/C
We all have excuses why

      Am        G              F     C
We're living in fear something in us dies
Riff: e------------------------------------|
      B------------------------------------|
      G------12h14p12--14b16r14---12h14p12-|
      D-12h14------------------------------|
      A------------------------------------|
      E------------------------------------|

Am       G           F      Em/C
And like a bird with broken wings

             Am      G
It's not how high he flies

        F       C
But the song he sings


REPEAT CHORUS

SOLO
e------------13p12-----12----------15------------------------------------|
B--13h15/20-------13h15--15---12h13--13p12h13p12-------------------------|
G--------------------------------------------------14-12-----------------|
D-------------------------------------------------------12--10-10--12/14-|
A------------------------------------------------------------------------|
E------------------------------------------------------------------------|

e----------------------------------5-5-------5-------5--------8p5-------|
B-----------------8--------------------8b10--8p5-8b10-8p5-8b10---8b10---|
G--------5-7-5-7b9--7b9r7--5--5-7b9-------------------------------------|
D-----5-7--------------------7------------------------------------------|
A--5-7------------------------------------------------------------------|
E-----------------------------------------------------------------------|

e--8p5----8b10r8----------------------------12h15p12x8/17---------------|
B-----8b10--------8b10--10b12--11b13--13b15-----------------------------|
G-----------------------------------------------------------------------|
D-----------------------------------------------------------------------|
A-----------------------------------------------------------------------|
E-----------------------------------------------------------------------|


Am       G                     F            Em/C
It's not how many times you've been knocked down

         Am   G         F        C
It's how many times you get back up


C       Dm             G         C
Courage is when you've lost your way

        C         Dm       G  C
But you find your strength anyway


REPEAT CHORUS

Riff:
e--12-12h15p12------|
B-------------15p13-|
G-------------------|
D-------------------|
A-------------------|
E-------------------|


(The other riff you hear later is just the beginning part to the solo repeated)


Hope this tab helped! :)
comments
We did not receive enough feedback on this tab! Please rate:
print report bad tab
1 2 3 4 5
I want to post or [tab]
guest
You may want to rate the tab now too:
select rating
Please do not post tabs as comments. Select "correction" instead!