Oops, an error
Loading. Please wait.

Disease Called Man Tab

version 1
version 1

Whole song

Interactive

1,225 views 1 this week
1 commentread comment
1 2 3 4 5
please rate
add to favorites
launch autoscroll
font size
0
reset
how to read this tab
guitar tuner
Tab Pro tools
  • play this tab
  • loop segment
  • change instrument
  • show fretboard
  • metronome
×
Best way to learn
"Disease Called Man"
Autoscroll
slow
fast
+/-
esc
set tempo
stop
Contributor
-------------------------------------------------------------------------------
                             Disease Called Man - Origin
-------------------------------------------------------------------------------
Tabbed by: Anonymous

Tuning: B-F#-B-E-G#-C#

Listen to the CD for a better way of knowing what to play and when.

Riff A:
|--------------|-------------|---------|
|--------------|--[1,3]------|--[2,4]--|
|--------------|-------------|---------|
|--------------|-------------|---------|
|--------------|-----1-0-1-0-|-000-000-|
|-0-1/2-0-3333-|-111-1-0-1-0-|-000-000-|

Riff B:
|---------------------------------------------|
|---------------------------------------------|
|---------------------------------------------|
|--------------------------------------555555-|
|-6666-1-0-0-6666-1-0-0-6666-1-0-0-6666-------|
|------1-0-0------1-0-0------1-0-0------------|
. . . . . . . . .
|--------------------------------------------------------------|
|--------------------------------------------------------------|
|--------------------------------------------------------------|
|--------------------------------------------------------------|
|----6666-1-0-0-6666-1-0-0-6666-1-0-0-6666--------5555---------|
|---------1-0-0------1-0-0------1-0-0-----99998888----88887777-|
          . . .      . . .      . . .     ,,,,,,,,    ,,,,,,,,

Riff B2:
|----------------------------------------------|
|--------------------------------------888888--|
|-8888-------8888-------8888-------8888--------|
|--------------------------------------555555--|
|-6666-1-0-0-6666-1-0-0-6666-1-0-0-6666--------|
|------1-0-0------1-0-0------1-0-0-------------|
       . . .      . . .      . . .
|-----------------------------------------------------------|
|-----------------------------------------------------------|
|-8888-------8888-------8888-------8888---------------------|
|-----------------------------------------------------------|
|-6666-1-0-0-6666-1-0-0-6666-1-0-0-6666--------5555---------|
|------1-0-0------1-0-0------1-0-0-----99998888----88887777-|
       . . .      . . .      . . .     ,,,,,,,,    ,,,,,,,,

Riff C:
[Play this extremely fast.]
|------------------------------------------------------|
|-----------------------------------------------11p9p8-|
|------10p9p7-7p6-----------10p9p7-7p6----10p8p7-------|
|-----------------9p8-8p6p5-----------10p9-------------|
|------------------------------------------------------|
|-0"---------------------------------------------------|

Riff D:
||--------------------|---------------------||
||------[-1&3-]-------|-----[-----2----]----||
||--------------------|---------------------||
||--------------------|---------------------||
||------4\3-3-3-\3-3--|-----0-4-3-0-4-3-0-1-||
||-0"---4\3-3-3-\3-3--|-0"--0-4-3-0-4-3-0-1-||
   ,    . . . .         ,   . . . . . . . .

Riff D1:
|-------------------------------------|
|------------------------------11p9p8-|
|----9p7p6-----------9p7p6------------|
|---------9p7p6-8p6p5-----9p7p6-------|
|-------------------------------------|
|-0"----------------------------------|
,

Riff E:                                         _____
                                               /sweep
|---------------------------|-----------------------------------|
|---------------------------|-----------------------------------|
|---------------------------|--------------------6h7h9p7p6------|
|---------------------------|-------------------9---------9p8p5-|
|---77776666--66665555------|---77776666--666610----------------|
|-4"--------9"--------8888"-|-4"--------9"----------------------|
  , ,,,,,,,,, ,,,,,,,,,,,,    , ,,,,,,,,, ,,,, ,,

Riff F:
|--------------------------------|--------------------|
|--------------------------------|--------------------|
|--------------------------------|--------------------|
|--------------------------------|--------------------|
|--------------------------1/----|--------------------|
|-311-1-1-311-1-1-01-01-01-1/-0"-|-311-1-1-311-1-1-0"-|
  ... . . ... . . .. .. ..    ,    ... . . ... . .

|-----------------------------------|
|----------------------------11p9p8-|
|--9p7p6-----------9p7p6------------|
|-------9p7p6-8p6p5-----9p7p6-------|
|-----------------------------------|
|-----------------------------------|

Riff G:
|---------------------------------|
|---------------------------------|
|---------------------------------|
|---------------------------------|
|-000-333-111-444-333-111-333-000-|
|-000-333-111-444-333-111-333-000-|

Riff H:
|----------------------------------|
|----------------------------------|
|----------------------------------|
|----------------------------------|
|----------------------------------|
|-11114444333377776666333366662222-|
  ,,,,,,,,,,,,,,,,,,,,,,,,,,,,,,,,
Riff I:
|----------------------------------|
|----------------------------------|
|----------------------------------|
|----------------------------------|
|-------------44443333----33332222-|
|-666699998888--------7777---------|

This riff is repeated with an increase in harmony pitch
each time.


Riff Structure:

Riff A x2
Riff B x2
Riff B2
Riff B
Riff C
Riff D
Riff D1
Riff E x4
Riff F
Riff C
Riff F
Riff C
Riff G x6
Riff H x4
Riff G x4

Riff I x4 ________________/-Two Guitars
Riff H x4                 \-Two Guitars

End

. - palm mute / - slide up to
\ - slide down to ~ - vibrato
h - hammer on b - Bend
p - pull off Suffixes for bend
t - tap f - full bend h - half bend
ph - pinched harmonic q - quarter bend t - tap bend
* - see comment ^ - Hold bend r release bend
x - Stuccatto ~ - vibrato bend
, - slight palm mute () - ghost note, sustained note
" - tremolo note <> - Trill
===============================================================================
comments
We did not receive enough feedback on this tab! Please rate:
print report bad tab
1 2 3 4 5
1 comment total.
+2 reply
bassplayer18A7X wrote on January 11 2009, 04:52 pm

amazing tab, that emad guys sounds like a fag, he is really gay, anyway, nice tab man.

I want to post or [tab]
guest
You may want to rate the tab now too:
select rating
Please do not post tabs as comments. Select "correction" instead!