Oops, an error
Loading. Please wait.

Finite Tab

version 1
version 1

Whole song

Interactive

by Origin
3,498 views 3 this week
1 commentread comment
1 2 3 4 5
x 3
add to favorites
launch autoscroll
font size
0
reset
how to read this tab
guitar tuner
×
Best way to learn
"Finite"
Autoscroll
slow
fast
+/-
esc
set tempo
stop
Author
tuning: drop b (C#,G#,E,B,F#,B)

[Intro]
e|-------------------------------------|
B|-------------------------------------|
G|-------------------------------------|
D|-11-11-14-14-12-12-15-15-11----------|
A|-------------------------------------|
E|-------------------------------------|

(after first intro: part play this 7 times)
   PM--------------------------------|
e|-----------------------------------|
B|-----------------------------------|
G|-----------------------------------|
D|-----------11----------------------|
A|-----------------------------------|
E|--14-11-14-------------------------|

[riff 2]
e|-------------------------------------|
B|-------------------------------------|
G|-------------------------------------|
D|-11-11-14-14-12-12-15-15-11----------|
A|-------------------------------------|
E|-------------------------------------|

   PM-------|    PM-------| PM------| PM------|  PM------|   PM---------|
e|---------------------------------------------------------------------|
B|---------------------------------------------------------------------|
G|----------------------------------8---------15----------14-----------|
D|-----------11-----------11-------------------------------------------|
A|---------------------------------------------------------------------|
E|--14-11-14-----14-11-14---11-14-11--11-8-11----18-15-18----17-14-17--|

                PM----|
e|----------------------------------------------------------------------------|
B|----------------------------------------------------------------------------|
G|----------------------------------------------------------------------------|
D|----------------------------------------------------------------------------|
A|-12-12-12-12----------------------------------------------------------------|
E|-------------12-15----------------------------------------------------------|


okay so next part these are 11's 12's 14's 15's just really really fast
so ill ut bars inbetween them

e|-------------------------------------------------------------------|
B|-------------------------------------------------------------------|
G|-------------------------------------------------------------------|
D|-11|11|14|14|12|12|15|15|11|11|11|11|------------------------------|
A|-------------------------------------------------------------------|
E|--------------------------------------14|14|14|14|11|11|11|11|-----|

e|-------------------------------------------------------------------|
B|-------------------------------------------------------------------|
G|-------------------------------------------------------------------|
D|-14|14|14|14|15|15|15|15|12|12|12|12|------------------------------|
A|-------------------------------------------------------------------|
E|-------------------------------------15|15|15|15|12|12|12|12|------|

e|-------------------------------------------------------------------|
B|-------------------------------------------------------------------|
G|-------------------------------------------------------------------|
D|-15|15|15|15|12|12|12|12|------------------------------------------|
A|-------------------------------------------------------------------|
E|-------------------------15|15|15|15|12|12|12|12|------------------|

e|-------------------------------------------------------------------|
B|-------------------------------------------------------------------|
G|-------------------------------------------------------------------|
D|-14|14|14|14|11|11|11|11|------------------------------------------|
A|-------------------------------------------------------------------|
E|-------------------------14|14|14|14|11|11|11|11|------------------|

okay it slows down a bit here just a tad tho. you should be able to tell
the difference
e|-------------------------------------------------------------------------|
B|-------------------------------------------------------------------------|
G|-------------------------------------------------------------------------|
D|-11-11-11-11-------------------------14-14-14-14-15-15-15-15-12-12-12-12-|
A|-------------------------------------------------------------------------|
E|-------------14-14-14-14-11-11-11-11-------------------------------------|

e|-------------------------------------------------------------------------|
B|-------------------------------------------------------------------------|
G|-------------------------------------------------------------------------|
D|-------------------------------------------------------------------------|
A|-------------------------15-15-15-15-12-12-12-12-------------------------|
E|-15-15-15-15-12-12-12-12-------------------------15-15-15-15-12-12-12-12-|

e|------------------------------------------------------------------------|
B|-------------------------14|14|14|14|14|14|14|14|-----------------------|
G|------------------------------------------------------------------------|
D|-14-14-14-14-11-11-11-11------------------------------------------------|
A|------------------------------------------------------------------------|
E|------------------------------------------------------------------------|

e|-------------------------------------------------------------------------|
B|-------------------------------------------------------------------------|
G|-------------------------------------------------------------------------|
D|-------------------------------------14-14-14-14-15-15-15-15-12-12-12-12-|
A|-------------------------------------------------------------------------|
E|-11-11-11-11-14-14-14-14-11-11-11-11-------------------------------------|

e|------------------------------------------------------------------------|
B|------------------------------------------------------------------------|
G|------------------------------------------------------------------------|
D|-------------------------15-15-15-15-12-12-12-12------------------------|
A|------------------------------------------------------------------------|
E|-15-15-15-15-12-12-12-12------------------------------------------------|

e|-------------------------------------------------------------------------|
B|-------------------------------------------------------------------------|
G|-------------------------------------------------------------------------|
D|-14-14-14-14-11-11-11-11-------------------------------------------------|
A|-------------------------------------------------------------------------|
E|-------------------------14-14-14-14-11-11-11-11-------------------------|

e|-------------------------------------------------------------------------|
B|-------------------------------------------------------------------------|
G|-------------------------------------------------------------------------|
D|-11-11-11-11-------------------------14-14-14-14-15-15-15-15-12-12-12-12-|
A|-------------------------------------------------------------------------|
E|-------------14-14-14-14-11-11-11-11-------------------------------------|

e|-------------------------------------------------------------------------|
B|-------------------------------------------------------------------------|
G|-------------------------------------------------------------------------|
D|-------------------------15-15-15-15-12-12-12-12-------------------------|
A|-------------------------------------------------------------------------|
E|-15-15-15-15-12-12-12-12-------------------------15-15-15-15-12-12-12-12-|

e|------------------------------------------------------------------------|
B|------------------------------------------------------------------------|
G|------------------------------------------------------------------------|
D|-14-14-14-14-11-11-11-11------------------------------------------------|
A|------------------------------------------------------------------------|
E|------------------------------------------------------------------------|

now the intro riff repeats
e|-------------------------------------|
B|-------------------------------------|
G|-------------------------------------|
D|-11-11-14-14-12-12-15-15-11----------|
A|-------------------------------------|
E|-------------------------------------|

part play this 7 times
   PM--------------------------------|
e|-----------------------------------|
B|-----------------------------------|
G|-----------------------------------|
D|-----------11----------------------|
A|-----------------------------------|
E|--14-11-14-------------------------|

[riff 2]
e|-------------------------------------|
B|-------------------------------------|
G|-------------------------------------|
D|-11-11-14-14-12-12-15-15-11----------|
A|-------------------------------------|
E|-------------------------------------|

   PM-------|    PM-------| PM------| PM------|  PM------|   PM---------|
e|---------------------------------------------------------------------|
B|---------------------------------------------------------------------|
G|----------------------------------8---------15----------14-----------|
D|-----------11-----------11-------------------------------------------|
A|---------------------------------------------------------------------|
E|--14-11-14-----14-11-14---11-14-11--11-8-11----18-15-18----17-14-17--|

                PM----|
e|----------------------------------------------------------------------------|
B|----------------------------------------------------------------------------|
G|----------------------------------------------------------------------------|
D|----------------------------------------------------------------------------|
A|-12-12-12-12----------------------------------------------------------------|
E|-------------12-15----------------------------------------------------------|

and this part is played again to

okay so next part these are 11's 12's 14's 15's just really really fast
so ill put bars in between them

e|-------------------------------------------------------------------|
B|-------------------------------------------------------------------|
G|-------------------------------------------------------------------|
D|-11|11|14|14|12|12|15|15|11|11|11|11|------------------------------|
A|-------------------------------------------------------------------|
E|--------------------------------------14|14|14|14|11|11|11|11|-----|

e|-------------------------------------------------------------------|
B|-------------------------------------------------------------------|
G|-------------------------------------------------------------------|
D|-14|14|14|14|15|15|15|15|12|12|12|12|------------------------------|
A|-------------------------------------------------------------------|
E|-------------------------------------15|15|15|15|12|12|12|12|------|

e|-------------------------------------------------------------------|
B|-------------------------------------------------------------------|
G|-------------------------------------------------------------------|
D|-15|15|15|15|12|12|12|12|------------------------------------------|
A|-------------------------------------------------------------------|
E|-------------------------15|15|15|15|12|12|12|12|------------------|

e|-------------------------------------------------------------------|
B|-------------------------------------------------------------------|
G|-------------------------------------------------------------------|
D|-14|14|14|14|11|11|11|11|------------------------------------------|
A|-------------------------------------------------------------------|
E|-------------------------14|14|14|14|11|11|11|11|------------------|

okay it slows down a bit here just a tad tho. you should be able to tell
the difference

e|-------------------------------------------------------------------------|
B|-------------------------------------------------------------------------|
G|-------------------------------------------------------------------------|
D|-11-11-11-11-------------------------14-14-14-14-15-15-15-15-12-12-12-12-|
A|-------------------------------------------------------------------------|
E|-------------14-14-14-14-11-11-11-11-------------------------------------|

e|-------------------------------------------------------------------------|
B|-------------------------------------------------------------------------|
G|-------------------------------------------------------------------------|
D|-------------------------------------------------------------------------|
A|-------------------------15-15-15-15-12-12-12-12-------------------------|
E|-15-15-15-15-12-12-12-12-------------------------15-15-15-15-12-12-12-12-|

e|------------------------------------------------------------------------|
B|-------------------------14|14|14|14|14|14|14|14|-----------------------|
G|------------------------------------------------------------------------|
D|-14-14-14-14-11-11-11-11------------------------------------------------|
A|------------------------------------------------------------------------|
E|------------------------------------------------------------------------|

e|-------------------------------------------------------------------------|
B|-------------------------------------------------------------------------|
G|-------------------------------------------------------------------------|
D|-------------------------------------14-14-14-14-15-15-15-15-12-12-12-12-|
A|-------------------------------------------------------------------------|
E|-11-11-11-11-14-14-14-14-11-11-11-11-------------------------------------|

e|------------------------------------------------------------------------|
B|------------------------------------------------------------------------|
G|------------------------------------------------------------------------|
D|-------------------------15-15-15-15-12-12-12-12------------------------|
A|------------------------------------------------------------------------|
E|-15-15-15-15-12-12-12-12------------------------------------------------|

e|-------------------------------------------------------------------------|
B|-------------------------------------------------------------------------|
G|-------------------------------------------------------------------------|
D|-14-14-14-14-11-11-11-11-------------------------------------------------|
A|-------------------------------------------------------------------------|
E|-------------------------14-14-14-14-11-11-11-11-------------------------|

e|-------------------------------------------------------------------------|
B|-------------------------------------------------------------------------|
G|-------------------------------------------------------------------------|
D|-11-11-11-11-------------------------14-14-14-14-15-15-15-15-12-12-12-12-|
A|-------------------------------------------------------------------------|
E|-------------14-14-14-14-11-11-11-11-------------------------------------|

e|-------------------------------------------------------------------------|
B|-------------------------------------------------------------------------|
G|-------------------------------------------------------------------------|
D|-------------------------15-15-15-15-12-12-12-12-------------------------|
A|-------------------------------------------------------------------------|
E|-15-15-15-15-12-12-12-12-------------------------15-15-15-15-12-12-12-12-|

e|------------------------------------------------------------------------|
B|------------------------------------------------------------------------|
G|------------------------------------------------------------------------|
D|-14-14-14-14-11-11-11-11------------------------------------------------|
A|------------------------------------------------------------------------|
E|------------------------------------------------------------------------|

sweep picking solo w00t w00t
e|---------------------------------16H21P16--------------------------------|
B|-------------------------------18--------18------------------------------|
G|-----------------------------18-------------18---------------------------|
D|--------------------------18------------------18------(x6)---------------|
A|---16-16-16-16-16-16-16H19----------------------19P16--------------------|
E|-------------------------------------------------------------------------|
NOTE: ONLY SWEEPS ARE PLAYED 6 TIMES

e|---------------------------------16H21P16--------------------------------|
B|-------------------------------18--------18------------------------------|
G|-----------------------------18-------------18---------------------------|
D|--------------------------18------------------18------(x3)---------------|
A|---16-16-16-16-16-16-16H19----------------------19P16--------------------|
E|-------------------------------------------------------------------------|

e|---------------------------------13H18P13--------------------------------|
B|-------------------------------15--------15------------------------------|
G|-----------------------------15-------------15---------------------------|
D|--------------------------15------------------15------(x6)---------------|
A|----------------------13H16----------------------16----------------------|
E|-------------------------------------------------------------------------|

e|---------------------------------16H21P16--------------------------------|
B|-------------------------------18--------18------------------------------|
G|-----------------------------18-------------18---------------------------|
D|--------------------------18------------------18------(x6)---------------|
A|---16-16-16-16-16-16-16H19----------------------19P16--------------------|
E|-------------------------------------------------------------------------|

e|---------------------------------16H21P16--------------------------------|
B|-------------------------------18--------18------------------------------|
G|-----------------------------18-------------18---------------------------|
D|--------------------------18------------------18------(x3)---------------|
A|---16-16-16-16-16-16-16H19----------------------19P16--------------------|
E|-------------------------------------------------------------------------|

e|---------------------------------13H18P13--------------------------------|
B|-------------------------------15--------15------------------------------|
G|-----------------------------15-------------15---------------------------|
D|--------------------------15------------------15------(x3)---------------|
A|----------------------13H16----------------------16----------------------|
E|-------------------------------------------------------------------------|

e|---------------------------------16H21P16--------------------------------|
B|-------------------------------18--------18------------------------------|
G|-----------------------------18-------------18---------------------------|
D|--------------------------18------------------18------(x6)---------------|
A|---16-16-16-16-16-16-16H19----------------------19P16--------------------|
E|-------------------------------------------------------------------------|

e|---------------------------------16H21P16--------------------------------|
B|-------------------------------18--------18------------------------------|
G|-----------------------------18-------------18---------------------------|
D|--------------------------18------------------18------(x3)---------------|
A|---16-16-16-16-16-16-16H19----------------------19P16--------------------|
E|-------------------------------------------------------------------------|

e|---------------------------------13H18P13--------------------------------|
B|-------------------------------15--------15------------------------------|
G|-----------------------------15-------------15---------------------------|
D|--------------------------15------------------15------(x3)---------------|
A|----------------------13H16----------------------16----------------------|
E|-------------------------------------------------------------------------|

e|------------------------------------------------------------|
B|------------------------------------------------------------|
G|------------------------------------------------------------|
D|------11-11-14-14-12-12-15-15-------------------------------|
A|------------------------------------------------------------|
E|------------------------------------------------------------|

     PM-------------------------------------------------------|
e|------------------------------------------------------------|
B|------------------------------------------------------------|
G|------------------------------------------------------------|
D|-11---------11-11-11-11-11-11-11-11-11-11-11-11-11-11-11-11-|
A|-----14--14-------------------------------------------------|
E|-----14--14-------------------------------------------------|

   PM---------------------------------------------------------------|
e|------------------------------------------------------------------|
B|------------------------------------------------------------------|
G|------------------------------------------------------------------|
D|------------------------------------------------------------------|
A|--12----11-11-11-11----12-12-12-12----13-13-13-13----14-14-14-14--|
E|--12----11-11-11-11----12-12-12-12----13-13-13-13----14-14-14-14--|

     PM-------------------------------------------------------|
e|------------------------------------------------------------|
B|------------------------------------------------------------|
G|------------------------------------------------------------|
D|-11---------11-11-11-11-11-11-11-11-11-11-11-11-11-11-11-11-|
A|-----14--14-------------------------------------------------|
E|-----14--14-------------------------------------------------|

e|---------------------------------------------------------------------------|
B|---------------------------------------------------------------------------|
G|---------------------------------------------------------------------------|
D|---------------------------------------------------------------------------|
A|--------------------------15-15-15-15-15-15-15-15-15-15-15-15-15-15--------|
E|--14-14-14-14-11-11-11-11--------------------------------------------------|

     PM-------------------------------------------------------------|
e|------------------------------------------------------------------|
B|------------------------------------------------------------------|
G|------------------------------------------------------------------|
D|-14---------14-14-14-14-14-14-14-14-14-14-14-14-14-14-14-14-------|
A|-----17--17-------------------------------------------------------|
E|-----17--17-------------------------------------------------------|

   PM---------------------------------------------------------------|
e|------------------------------------------------------------------|
B|------------------------------------------------------------------|
G|------------------------------------------------------------------|
D|------------------------------------------------------------------|
A|--15----14-14-14-14----15-15-15-15----16-16-16-16----17-17-17-17--|
E|--15----14-14-14-14----15-15-15-15----16-16-16-16----17-17-17-17--|

     PM-------------------------------------------------------|
e|------------------------------------------------------------|
B|------------------------------------------------------------|
G|------------------------------------------------------------|
D|-14---------14-14-14-14-14-14-14-14-14-14-14-14-14-14-14-14-|
A|-----17--17-------------------------------------------------|
E|-----17--17-------------------------------------------------|

e|-------------------------------------------------------------------|
B|-------------------------------------------------------------------|
G|-------------------------------------------------------------------|
D|-------------------------------------------------------------------|
A|----------------------18-18-18-18-18-18-18-18-18-18-18-18-18-18----|
E|-17-17-17-17-14-14-14----------------------------------------------|

     PM-------------------------------------------------------|
e|------------------------------------------------------------|
B|------------------------------------------------------------|
G|------------------------------------------------------------|
D|-11---------11-11-11-11-11-11-11-11-11-11-11-11-11-11-11-11-|
A|-----14--14-------------------------------------------------|
E|-----14--14-------------------------------------------------|

   PM------------------------------------------------------------------------|
e|---------------------------------------------------------------------------|
B|---------------------------------------------------------------------------|
G|---------------------------------------------------------------------------|
D|---------------------------------------------------------------------------|
A|--12----11-11-11-11----12-12-12-12----13-13-13-13----14-14-14-14-----------|
E|--12----11-11-11-11----12-12-12-12----13-13-13-13----14-14-14-14-----------|

    PM----------------------------------------------------------------------|
e|--------------------------------------------------------------------------|
B|--------------------------------------------------------------------------|
G|--------------------------------------------------------------------------|
D|-11---------11-11-11-11-11-11-11-11-11-11-11-11-11-11-11-11---------------|
A|-----14--14---------------------------------------------------------------|
E|-----14--14---------------------------------------------------------------|

e|-------------------------------------------------------------------------------|
B|-------------------------------------------------------------------------------|
G|-------------------------------------------------------------------------------|
D|-------------------------------------------------------------------------------|
A|------------------------15-15-15-15-15-15-15-15-15-15-15-15-15-15-15-15--------|
E|14-14-14-14-11-11-11-11--------------------------------------------------------|

e|-----------------------------------------------------------------------------|
B|-----------------------------------------------------------------------------|
G|-----------------------------------------------------------------------------|
D|-----------------------------------------------------------------------------|
A|-11-11-11-11-11-11-11-11-11-11-11-11--8------8--8--8--8---5----5-5-5-5-------|
E|-11-11-11-11-11-11-11-11-11-11-11-11--10-----10-10-10-10--7----7-7-7-7-------|

PM---------------------------------------------------------------------------|
e|---------------------------------------------------------------------------|
B|---------------------------------------------------------------------------|
G|---------------------------------------------------------------------------|
D|---------------------------------------------------------------------------|
A|-11-11-11-11-11-11-11-11-11-11-11-11--8------8--8--8--8---5----5-5-5-5-----|
E|-11-11-11-11-11-11-11-11-11-11-11-11--10-----10-10-10-10--7----7-7-7-7-----|

PM--------------------------------------------------------------------------|
e|--------------------------------------------------------------------------|
B|--------------------------------------------------------------------------|
G|--------------------------------------------------------------------------|
D|--------------------------------------------------------------------------|
A|-11-11-11-11-11-11-11-11-11-11-11-11--8------8--8--8--8---5----5-5-5-5----|
E|-11-11-11-11-11-11-11-11-11-11-11-11--10-----10-10-10-10--7----7-7-7-7----|

PM--------------------------------------------------------------------------|
e|--------------------------------------------------------------------------|
B|--------------------------------------------------------------------------|
G|--------------------------------------------------------------------------|
D|--------------------------------------------------------------------------|
A|-11-11-11-11-11-11-11-11-11-11-11-11--8------8--8--8--8---5----5-5-5-5----|
E|-11-11-11-11-11-11-11-11-11-11-11-11--10-----10-10-10-10--7----7-7-7-7----|

PM---------------------------------------------------------------------------|
e|---------------------------------------------------------------------------|
B|---------------------------------------------------------------------------|
G|---------------------------------------------------------------------------|
D|---------------------------------------------------------------------------|
A|-16-16-16-16-16-16-16-16-16-16-16-16-16-16-16-16-16-16-16-16-16-16-16-16---|
E|---------------------------------------------------------------------------|

PM---------------------------------------------------------------------------|
e|---------------------------------------------------------------------------|
B|---------------------------------------------------------------------------|
G|---------------------------------------------------------------------------|
D|---------------------------------------------------------------------------|
A|-16-16-16-16-16-16-16-16-16-16-16-16-16-16-16-16-18-18-18-18-19-19-19-19---|
E|-15-15-15-15-15-15-15-15-15-15-15-15---------------------------------------|

PM---------------------------------------------------------------------------|
e|---------------------------------------------------------------------------|
B|---------------------------------------------------------------------------|
G|---------------------------------------------------------------------------|
D|---------------------------------------------------------------------------|
A|-16-16-16-16-16-16-16------------------------------------------------------|
E|---------------------------------------------------------------------------|
Suggest correction
Give kudos to tab author, rate the tab!
1 2 3 4 5
comments
print report bad tab
1 comment total.
0 reply
Chaosvirus 833 Mar 05, 2010 02:56 PM

Great Tabs !

guest
You may want to rate the tab now too:
select rating
Wanna post a correction for this tab? Suggest correction