Oops, an error
Loading. Please wait.

Implosion Of Eternity tab

version 2
version 2

Whole song

by Origin
114 views 3 this week
no commentswrite comment
1 2 3 4 5
3 more votes to show rating
add to favorites
×
Save as Personal and add changes to this tab that will be seen only by you. Learn more ›
×
You can save this tab as Personal to edit and correct it or add notes. All changes will be seen only by you. Learn more »
launch autoscroll
font size
0
reset
how to read this tab
guitar tuner
edit
Autoscroll
slow
fast
+/-
esc
set tempo
stop
Author
Band:  Origin
Album: Informis Infinitas Inhumanitas
Song:  Implosion Of Eternity


.  - palm mute           /  - slide up to
\  - slide down to       ~  - vibrato
h  - hammer on           b  - Bend
p  - pull off            Suffixes for bend
t  - tap                 f  - full bend    h - half bend
ph - pinched harmonic    q  - quarter bend t - tap bend
*  - see comment         ^  - Hold bend    r release bend
x  - Stuccatto           ~  - vibrato bend
,  - slight palm mute    () - ghost note, sustained note
"  - tremolo note        <> - Trill

Drop B Tuning: B-F#-B-E-G#-C#

guitar one =  left channel
guitar two = right channel

RIFF 1 (0:01) both gtr. = 4 times
|--------------------------------------------------------------||
|--------------------------------------------------------------||
|--------------------------------------------------------------||
|--------------------------------------------------------------||
|-----------------666-3-4-666-3-4--------------8-7---4-7-4-1-1-||
|-3333222244441111----3-4-----3-4-333322224444-8-7---4-7-4-1-1-||
                      . .     . .                    .   . .
RIFF 2 (0:17) gtr.one = 4 times
|-----------------------------------------------------------------||
|-----------------------------------------------------------------||
|-----------------------------------------------------------------||
|-----------------------------------------------------------------||
|-666-3-4-666-3-2-666-3-4-66889999666-3-4-666-3-2-8-5-4-5-1---2/3-||
|-----3-4-----3-2-----3-4-------------3-4-----3-2-8-5-4-5---3-2/3-||
      . .     . .     . .             . .     . . . . . .   .
RIFF 2 (0:17) gtr.two = 4 times
|-----------------------------------------------------------------||
|-----------------------------------------------------------------||
|-----------------------------------------------------------------||
|-----------------------------------------------------------------||
|-666-3-4-666-3-2-666-3-4-66889999666-3-4-666-3-2-8-5-4-5-1-------||
|-----3-4-----3-2-----3-4-------------3-4-----3-2-8-5-4-5---3-2-0-||
      . .     . .     . .             . .     . . . . . .   . . .
RIFF 3 (0:33) gtr.one = first time then both 4 times
|-------------------------------------------------------------------||
|-------------------------------------------------------------------||
|-------------------------------------------------------------------||
|-------------------------------------------------------------------||
|-1-3-2-3-223-223--1-3-2-3-223-223--1-3-223-233-223-334-334-334-6/7-||
|-1-3-2-3-223-223--1-3-2-3-223-223--1-3-223-223-223-334-334-334-6/7-||
  . . . . ... ...  . . . . ... ...  . . ... ... ... ... ... ...


RIFF 4 (0:52) gtr.one = 1,2 and 4 time / gtr. two = 4 times
|--------------------------------------------------------------------||
|--------------------------------------------------------------------||
|--------------------------------------------------------------------||
|-------------77776666--------------------------77776666-------------||
|---------------------------------------------------------------8888-||
|-777766667777--------999910p9999999777766667777--------99993333-----||

RIFF 4 (1:00) gtr.one = third time
|----------------------------------------------------------------|
|----------------------------------------------------------------|
|----------------------------------------------------------------|
|-------------101010109999--------------------------101010109999-|
|-777766667777------------999910p9999999777766667777-------------|
|----------------------------------------------------------------|

 ------------------||
 ------------------||
 ------------------||
 ------------------||
 -9999--------8888-||
 -----10101010-----||

RIFF 5A (1:08) gtr. one = 1 time
|-----------------------------------------------------------------||
|-----------------------------------------------------------------||
|-----------------------------------------------------------------||
|-----------------------------------------------------------------||
|-000-000-0-000-0-000-000-0-000-0-000-0-0-0-0-0-0-0-2-2-4-444-1---||
|-000-000-0-000-0-000-000-0-000-0-000-0-0-0-0-0-0-0-2-2-4-444-1---||
  ... ... . ... . ... ... . ... . ... . . . . . . . . . . ...
RIFF 5A (1:08) gtr. two = 1 time
|-----------------------------------------------------------------||
|-----------------------------------------------------------------||
|-----------------------------------------------------------------||
|-----------------------------------------------------------------||
|-------------------------------------------------0-2-2-4-444-1---||
|-------------------------------------------------0-2-2-4-444-1---||
                                                  . . . . ...
RIFF 5B (1:12) both gtr. = 3 times
|-----------------------------------------------------------------||
|-----------------------------------------------------------------||
|-----------------------------------------------------------------||
|-----------------------------------------------------------------||
|-000-000-0-000-0-000-000-0-000-0-000-000-0-000-0-0-2-2-4-444-1---||
|-000-000-0-000-0-000-000-0-000-0-000-000-0-000-0-0-2-2-4-444-1---||
  ... ... . ... . ... ... . ... . ... . . . . . . . . . . ...
RIFF 6 (1:25) gtr. one = 1 time
|-------------------------------------------------||
|-------------------------------------------------||
|-------------------------------------------------||
|-------------------------------------------------||
|-000-000-0-0-000-000-0-0-000-000-0-0-000-000-0-0-||
|-000-000-0-0-000-000-0-0-000-000-0-0-000-000-0-0-||
  ... ... . . ... ... . . ... ... . . ... ... . .
RIFF 6 (1:25) gtr. two = 1 time
|-------------------------------------------------||
|-------------------------------------------------||
|-------------------------------------------------||
|-------------------------------------------------||
|-0-----------------------------------------------||
|-0-----------------------------------------------||

RIFF 6 (1:28) both gtr. = 1 time
|-------------------------------------------------||
|-------------------------------------------------||
|-------------------------------------------------||
|-------------------------------------------------||
|-000-000-0-0-000-000-0-0-000-000-0-0-000-000-0-0-||
|-000-000-0-0-000-000-0-0-000-000-0-0-000-000-0-0-||
  ... ... . . ... ... . . ... ... . . ... ... . .

RIFF 7 (1:31) gtr. one
Harmonics = touch the string lightly over the fret during picking
|----4-times-----|---4-times---|-----4-times----|-last--||
|----------------|-------------|----------------|-------||
|-------harmonics|-(harm.)-----|--------(harm.)-|(harm.)||
|----------------|-------------|----------------|-------||
|-555555---------|---------0-0-|-555555---------|-------||
|-------33333\---|-333-333-0-0-|-------33333\---|-333---||
                           . .
RIFF 7 (1:31) gtr. two
|----4-times-----|---4-times---|----4-times-----|-last--||
|----------------|-------------|----------------|-------||
|----------------|-------------|----------------|-------||
|----------------|-------------|----------------|-------||
|-555555---------|-000-000-0-0-|-555555---------|-000---||
|-------00000----|-000-000-0-0-|-------00000----|-000---||
        .....      ... ... . .         .....      ...

RIFF 8 (1:42) both gtr. = 1 time
|-----------------------------------------------------------------|
|-----------------------------------------------------------------|
|-----------------------------------------------------------------|
|-----------------------------------------------------------------|
|---------------------1111----4444----------------6------66669999-|
|-00001111333311113333----3333----1111111133333333--63333---------|

 ------------------------------------------------------------------|
 ------------------------------------------------------------------|
 ------------------------------------------------------------------|
 ---------------------------------------------------------44447777-|
 ---------------------1111----4444----------------6-0-0-0----------|
 -00001111333311113333----3333----1111111133333333--0-0-0----------|
                                                    . . .
 -------------------------------------------------------------------|
 -------------------------------------------------------------------|
 -------------------------------------------------------------------|
 -------------------------------------------------------------------|
 ---------------------1111----4444----------------6------66669999---|
 -00001111333311113333----3333----1111111133333333--63333-----------|

 ------------------------------------------------------------------||
 ------------------------------------------------------------------||
 ------------------------------------------------------------------||
 ---------------------------------------------------------44447777-||
 ---------------------1111----4444----------------6-5-5-5----------||
 -00001111333311113333----3333----1111111133333333--5-5-5----------||
                                                    . . .
RIFF 9 (1:58) both gtr. = 2 times
|------------------------------------------------------------------|
|------------------------------------------------------------------|
|-----------------------------55554444-----------------------------|
|-7777----7777----7777----7777--------6666----6666----6666----6666-|
|-----3333----3333----3333----------------2222----2222----2222-----|
|------------------------------------------------------------------|

 ------------------------------------------------------------------|
 ------------------------------------------------------------------|
 -----------------------------55554444-----------------------------|
 -7777----7777----7777----7777--------6666777733336666222233332222-|
 -----3333----3333----3333-----------------------------------------|
 ------------------------------------------------------------------|

 ------------------------------------------------------------------|
 ------------------------------------------------------------------|
 -----------------------------55554444--------------------44447777-|
 -7777----7777----7777----7777--------6666----6666----6666---------|
 -----3333----3333----3333----------------2222----2222-------------|
 ------------------------------------------------------------------|

 ------------------------------------------------------------------||
 ------------------------------------------------------------------||
 -----------------------------55554444-----------------------------||
 -7777----7777----7777----7777--------6666777733336666222233332222-||
 -----3333----3333----3333-----------------------------------------||
 ------------------------------------------------------------------||

RIFF 10 (2:29) gtr. one = 2 times
|only-first|-------------------------------------------------------------||
|---time---|-------------------------------------------------------------||
|----------|-9999------889p88888--------9999889988886688655555555--------||
|-1087-----|--------------------1087-------------------------------------||
|-----1087-|-----781087-------------7810-------------------------10871087||
|----------|-------------------------------------------------------------||

RIFF 10 (2:29) gtr. two = 2 times
|----------------------------------------------------------------|-second-|
|----------------------------------------------------------------|timeonly|
|----------------------------------------------------------------|--------|
|----------------------------------------------------------------|1087----|
|------------7777------667p66666--------7777667766664466433333333|----1087|
|----------------------------------------------------------------|--------|

RIFF 10 (2:38) gtr. one = 4 times
|-------------------------------------------------|
|-------------------------------------------------|
|-14141414----------131314p1313131313-------------|
|------------------------------------151312-------|
|---------1213151312-----------------------121315-|
|-------------------------------------------------|

 ----------------------------------------------------------------||
 ----------------------------------------------------------------||
 -14141414131314141313131311111313111010101010101010-------------||
 ----------------------------------------------------------------||
 ---------------------------------------------------151312151312-||
 ----------------------------------------------------------------||

RIFF 10 (2:38) gtr. two = 4 times
|-------------------------------------------------------------||
|-------------------------------------------------------------||
|-9999------889p88888--------9999889988886688655555555--------||
|--------------------1087-------------------------------------||
|-----781087-------------7810-------------------------10871087||
|-------------------------------------------------------------||

RIFF 10 (2:54) gtr. one = 1 time
|-------------------------------------------------------------||
|-------------------------------------------------------------||
|-9999------889p88888--------9999889988886688655555555--------||
|--------------------1087-------------------------------------||
|-----781087-------------7810-------------------------10871087||
|-------------------------------------------------------------||

RIFF 10 (2:54) gtr. two = 1 time
|-------------------------------------------------------------||
|-------------------------------------------------------------||
|-9999------889p88888--------9999889988886688655555555--------||
|-------------------------------------------------------------||
|-------------------------------------------------------------||
|-------------------------------------------------------------||

RIFF 10 (2:58) gtr. one       ending
|-----------------------------------------------------------||
|---------------------------------------------10ph--/--/----||
|-9999------889p88888--------9999889988886666---------------||
|--------------------1087-----------------------------------||
|-----781087-------------7810-------------------------------||
|-----------------------------------------------------------||

RIFF 10 (2:58) gtr. two       ending
|---------------------------------------------10ph--/--/----||
|-----------------------------------------------------------||
|-9999------889p88888--------9999889988886666---------------||
|-----------------------------------------------------------||
|-----------------------------------------------------------||
|-----------------------------------------------------------||

END

            
            
Suggest correction
Creating personal tab
Creating personal tab
You can edit any tab online and save it as your Personal.

You can edit, replace or remove any tab part or add personal notes – all changes will be seen only by you.

Personal tabs can be accessed anytime from any device, even offline.
Learn more »
Give kudos to tab author, rate the tab!
1 2 3 4 5
comments
print report bad tab
guest
You may want to rate the tab now too:
select rating
Wanna post a correction for this tab? Suggest correction