Oops, an error
Loading. Please wait.

Vomit You Out Tab

version 1
version 1

Whole song

Interactive

697 views 1 this week
1 commentread comment
1 2 3 4 5
please rate
add to favorites
launch autoscroll
font size
0
reset
how to read this tab
guitar tuner
Autoscroll
slow
fast
+/-
esc
set tempo
stop
Help us to improve Ultimate-Guitar.com Take our survey!
×
Author
Difficulty
Tuning
advanced
B F# B E G# C#
.  - palm mute           /  - slide up to
\  - slide down to       ~  - vibrato
h  - hammer on           b  - Bend
p  - pull off            Suffixes for bend
t  - tap                 f  - full bend    h - half bend
ph - pinched harmonic    q  - quarter bend t - tap bend
*  - see comment         ^  - Hold bend    r release bend
x  - Stuccatto           ~  - vibrato bend
,  - slight palm mute    () - ghost note, sustained note
"  - tremolo note        <> - Trill

Tuning drop B


Don`t expect this to be 100% accurate, but it should give you a
good idea of how to play the it. Listen to the song for timing.
If you have a correctoin, conntact me at adress shown above.

Enjoy!

Riff 1a
|---------------------------------------------------------------------------|
|---------------------------------------------------------------------------|
|---------------------------------------------------------------------------|
|---------------------------------------------------------------------------|
|-111-00-11-5555-111-00-11-5555-6666-111-00-11-4444-3333-111-00-11----------|
|-111-00-11------111-00-11-----------111-00-11-----------111-00-11-22-33-22-|
  ... .. ..      ... .. ..           ... .. ..           ... .. .. .. .. .

Riff 1b Guitar 1
|---------------------------------------------------------------------------|
|---------------------------------------------------------------------------|
|---------------------------------------------------------------------------|
|---------------------------------------------------------------------------|
|-111-00-11-5555-111-00-11-5555-6666-111-00-11-4444-3333-111-00-11----------|
|-111-00-11------111-00-11-----------111-00-11-----------111-00-11-22-33-22-|
| ... .. ..      ... .. ..           ... .. ..           ... .. .. .. .. ..

Guitar 2
|---------------------------------------------------------------------------|
|---------------------------------------------------------------------------|
|---------------------------------------------------------------------------|
|-----------3333-----------3333-4444-----------2222-1111--------------------|
|-111-00-11------111-00-11-----------111-00-11-----------111-00-11----------|
|-111-00-11------111-00-11-----------111-00-11-----------111-00-11-22-33-22-|
  ... .. ..      ... .. ..           ... .. ..           ... .. .. .. .. ..

Riff 2
|--------------------------------------------------------|
|--------------------------------------------------------|
|--------------------------------------------------------|
|--------------------------------------------------------|
|--------------------------------------------------------|
|-1111-1111----1111-1111----1111-1111----1-3-4-3-1-3-2-1-|
  .... ....    .... ....    .... ....    . . . . . . . .

Riff 3a
|--------------------------------------------------------------|
|--------------------------------------------------------------|
|--------------------------------------------------------------|
|--------------------------------------------------------------|
|-----------5555-----------5566-----------4433-----------------|
|-1111-1111------1111-1111------1111-1111------1-3-4-3-1-3-2-1-|
  .... ....      .... ....      .... ....      . . . . . . . .

Riff 2
|--------------------------------------------------------|
|--------------------------------------------------------|
|--------------------------------------------------------|
|--------------------------------------------------------|
|--------------------------------------------------------|
|-1111-1111----1111-1111----1111-1111----1-3-4-3-1-3-2-1-|
  .... ....    .... ....    .... ....    . . . . . . . .

Riff 3b
|-------------------------------------------------------------|
|-------------------------------------------------------------|
|-------------------------------------------------------------|
|-----------3333-----------3344----------3322-----------------|
|-------------------------------------------------------------|
|-1111-1111------1111-1111-----1111-1111------1-3-4-3-1-3-2-1-|
  .... ....      .... ....     .... ....      . . . . . . . .

Riff 3c Guitar 1
|-------------------------------------------------------------|
|-------------------------------------------------------------|
|-------------------------------------------------------------|
|-----------3333-----------3344----------3322-----------------|
|-------------------------------------------------------------|
|-1111-1111------1111-1111-----1111-1111------1-3-4-3-1-3-2-1-|
| .... ....      .... ....     .... ....      . . . . . . . .

Guitar 2
|--------------------------------------------------------------|
|--------------------------------------------------------------|
|--------------------------------------------------------------|
|--------------------------------------------------------------|
|-----------5555-----------5566-----------4433-----------------|
|-1111-1111------1111-1111------1111-1111------1-3-4-3-1-3-2-1-|
  .... ....      .... ....      .... ....      . . . . . . . .

Fill Guitar 1
|-----------------------------------------------------------------|
|-----------------------------------------------------------------|
|-----------------------------------------------------------------|
|-----------3333-----------3344----------3322---------------------|
|-----------------------------------------------------------------|
|-1111-1111------1111-1111-----1111-1111------1111-1111-1111-1111-|
| .... ....      .... ....     .... ....      .... .... .... ....

Guitar 2
|------------------------------------------------------------------|
|------------------------------------------------------------------|
|------------------------------------------------------------------|
|------------------------------------------------------------------|
|-----------5555-----------5566-----------4433---------------------|
|-1111-1111------1111-1111------1111-1111------1111-1111-1111-1111-|
  .... ....      .... ....      .... ....      .... .... .... ....

Riff 4
|------------------------------------------------|
|------------------------------------------------|
|------------------------------------------------|
|------------------------------------------------|
|-2-1-2-5------------2-1-2-5---------------------|
|-2-1-2-5--1111-1111-2-1-2-5--1111-3344-3333-5566|
| . . .    .... .... . . .    .... .... .... ....

|------------------------------------------------|
|------------------------------------------------|
|------------------------------------------------|
|------------------------------------------------|
|------------------------------------------------|
|2-1-2-5-------------2-1-2-5---------------------|
|2-1-2-5--1111-1111--2-1-2-5--11-33-44-33-55-66--|
 . . .    .... ....  . . .    .. .. .. .. .. ..

Riff 5a
|-------------------------|
|-------------------------|
|-------------------------|
|-------22-55-------------|
|-------------------------|
|-11-44-------11-44-11-00-|
  .. ..       .. .. .. ..

Riff 5b
|-------------------------|
|-------------------------|
|-------------------------|
|-------55-88-------------|
|-------------------------|
|-11-44-------11-44-11-00-|
  .. ..       .. .. .. ..

Riff 5a
|-------------------------|
|-------------------------|
|-------------------------|
|-------22-55-------------|
|-------------------------|
|-11-44-------11-44-11-00-|
  .. ..       .. .. .. ..

Fill
|----------------------------|
|----------------------------|
|----------------------------|
|-------22-55----------------|
|----------------------------|
|-11-44-------1111-1111-1111-|
  .. ..       .... .... ....

Riff 6
|------------------------------------------------|
|------------------------------------------------|
|------------------------------------------------|
|------------------------------------------------|
|------------------------------------------------|
|-0000-1-3-4-11111-1-3-4-0000-1-3-4-2222-4-5-4-5-|
       . . .       . . .      . . . .... . . . .

|-----------------------------------------------|
|-----------------------------------------------|
|-----------------------------------------------|
|-----------------------------------------------|
|-----------------------------------------------|
|-0000-1-3-4-1111-1-3-4-0000-1-3-4-2222-3-4-3-4-|
       . . .      . . .      . . . .... . . . .

Riff 7
|------------------------------------------------|
|------------------------------------------------|
|------------------------------------------------|
|------------------------------------------------|
|------------------------------------------------|
|-0000-11334-1111-3311-0000-113344-224455-556688-|


|------------------------------------------------|
|------------------------------------------------|
|------------------------------------------------|
|------------------------------------------------|
|------------------------------------------------|
|-0000-11334-1111-3311-0000-113344-443344-445577-|


Riff 8
|---------------------------------------------------------------------------|
|---------------------------------------------------------------------------|
|---------------------------------------------------------------------------|
|---------------------------------------------------------------------------|
|---------------------------------------------------------------------------|
|-0000-113344-111111111111-1-3-4-3-1-3-0000-113344-111111111111-4-3-4-4-5-7-|
                           . . . . . .                          . . . . . .
Riff 7
|------------------------------------------------|
|------------------------------------------------|
|------------------------------------------------|
|------------------------------------------------|
|------------------------------------------------|
|-0000-11334-1111-3311-0000-113344-224455-556688-|

|------------------------------------------------|
|------------------------------------------------|
|------------------------------------------------|
|------------------------------------------------|
|------------------------------------------------|
|-0000-11334-1111-3311-0000-113344-443344-445577-|

Fun but hard song, enjoy!
Suggest correction
Give kudos to tab author, rate the tab!
1 2 3 4 5
comments
print report bad tab
1 comment total.
0 reply
JigsoreQuandary 571 wrote on March 2 2012, 11:59 pm

Great job with this! The spacings were a little weird for me, so I changed them to my taste, but it's right on as far as accuracy.

guest
You may want to rate the tab now too:
select rating
Wanna post a correction for this tab? Suggest correction