Oops, an error
Loading. Please wait.

Clueless tab

176 views 3 this week
3 commentsread comments
1 2 3 4 5
2 more votes to show rating
add to favorites
×
Save as Personal and add changes to this tab that will be seen only by you. Learn more ›
×
You can save this tab as Personal to edit and correct it or add notes. All changes will be seen only by you. Learn more »
launch autoscroll
font size
0
reset
how to read this tab
guitar tuner
edit
Autoscroll
slow
fast
+/-
esc
set tempo
stop
Author
Difficulty
Tuning: Standard

[Intro]
e|----------------------------------------------------------------------------|
B|--------------x------------------x------------------x----------------0------|
G|--------0-----x------------0-----x------------0-----x------------2-------2--|
D|------0----0--x----------0----0--x----------0----0--x----------0------------|
A|--0h2---------x------2h3---------x------------------x-----------------------|
E|----------------------------------------0h3----------------0h2--------------|


[Verse]
  When I catch your reflection I see daggers in your smile
  There's a cruelty in your face I haven't seen for a while
  And I placed my trust in your hands but you threw it to the wind
  And I should have seen it coming 'cause now I feel the sting
e|----------------------------------------------------------------------------|
B|--------------x------------------x------------------x------------------x----|
G|--------0-----x------------0-----x------------0-----x------------2-----x----|
D|------0----0--x----------0----0--x----------0----0--x----------0----0--x----| 4x
A|--0h2---------x------2h3---------x------------------x------------------x----|
E|----------------------------------------0h3----------------0h2--------------|

  Say you're sorry
e|--0--------(5)-----|
B|--1---------3------|
G|--0---------0------|
D|--2---------0------|
A|--3---------5------|
E|-------------------|


[Chorus]
  Oh, you got me, oh no, you got me again
  Oh no, it can't be, oh no, it never ends
e|-(3)------------------------------------------------------------------------|
B|-(3)------------------------------------------------------------------------|
G|--4---4---4---4---4---4---4-------------------------------------------------|
D|--5---5---5---5---5---5---5---12-------14--14--14--14--14--14--14-(12)------| 2x
A|--5---5---5---5---5---5---5---12-------14--14--14--14--14--14--14-(12)------|
E|--3---3---3---3---3---3---3---10-------12--12--12--12--12--12--12--10\------|

  There's no excuses to be clueless
e|--3---3---3---3---3---3---3---5--------3---3---3---3---3---3---3---5--------|
B|--1---1---1---1---1---1---1---3--------0---0---0---0---0---0---0---3--------|
G|--0---0---0---0---0---0---0---0--------0---0---0---0---0---0---0---0--------|
D|--2---2---2---2---2---2---2---0--------2---2---2---2---2---2---2---0--------|
A|--3---3---3---3---3---3---3---5--------2---2---2---2---2---2---2---5--------|
E|----------------------------------------------------------------------------|

  Oh, you got me, oh no, you got me again, oh no!
e|-(3)------------------------------------------------------------------------|
B|-(3)------------------------------------------------------------------------|
G|--4---4---4---4---4---4---4-------------------------------------------------|
D|--5---5---5---5---5---5---5---12-------14--14--14--14--14--14--14-(12)------| 
A|--5---5---5---5---5---5---5---12-------14--14--14--14--14--14--14-(12)------|
E|--3---3---3---3---3---3---3---10-------12--12--12--12--12--12--12--10(\)----|


[Verse]
  If I could twist back the clocks then I wouldn't give you one last try
  And I was tangled in your web but I thought you wouldn't hurt a fly
  And I feel a lump in my throat and my heart picks up its pace
  'Cause you wouldn't know a good thing if it slapped you in the face
e|----------------------------------------------------------------------------|
B|--------------x------------------x------------------x------------------x----|
G|--------0-----x------------0-----x------------0-----x------------2-----x----|
D|------0----0--x----------0----0--x----------0----0--x----------0----0--x----| 4x
A|--0h2---------x------2h3---------x------------------x------------------x----|
E|----------------------------------------0h3----------------0h2--------------|

  Just Say you're sorry
e|--0--------(5)-------|
B|--1---------3--------|
G|--0---------0--------|
D|--2---------0--------|
A|--3---------5--------|
E|---------------------|


[Chorus]
  Oh, you got me, oh no, you got me again
  Oh no, it can't be, oh no, it never ends
e|-(3)------------------------------------------------------------------------|
B|-(3)------------------------------------------------------------------------|
G|--4---4---4---4---4---4---4-------------------------------------------------|
D|--5---5---5---5---5---5---5---12-------14--14--14--14--14--14--14-(12)------| 2x
A|--5---5---5---5---5---5---5---12-------14--14--14--14--14--14--14-(12)------|
E|--3---3---3---3---3---3---3---10-------12--12--12--12--12--12--12--10\------|

  There's no excuses to be clueless
e|--3---3---3---3---3---3---3---5--------3---3---3---3---3---3---3---5--------|
B|--1---1---1---1---1---1---1---3--------0---0---0---0---0---0---0---3--------|
G|--0---0---0---0---0---0---0---0--------0---0---0---0---0---0---0---0--------|
D|--2---2---2---2---2---2---2---0--------2---2---2---2---2---2---2---0--------|
A|--3---3---3---3---3---3---3---5--------2---2---2---2---2---2---2---5--------|
E|----------------------------------------------------------------------------|

  Oh, you got me, oh no, you got me again, oh no!
e|-(3)------------------------------------------------------------------------|
B|-(3)------------------------------------------------------------------------|
G|--4---4---4---4---4---4---4-------------------------------------------------|
D|--5---5---5---5---5---5---5---12-------14--14--14--14--14--14--14-(12)------|
A|--5---5---5---5---5---5---5---12-------14--14--14--14--14--14--14-(12)------|
E|--3---3---3---3---3---3---3---10-------12--12--12--12--12--12--12--10(\)----|


[Bridge]
  No more chances, this is it
  There's no more answers, now I quit
  There's no more chances, this is it  
e|--3-----------------------------------5-----------------3-------------------|
B|--1-----------------------------------3-----------------0-------------------|
G|--0-----------------------------------0-----------------0-------------------|
D|--2-----------------------------------0-----------------2-------------------| 3x
A|--3----xxxxx----xxxxx----xxxxx----xxxx5----xxxxx----xxxx2----xxxxx----xxxx--|
E|----------------------------------------------------------------------------|
(x's imply strumming pattern)

  There's no more answers - say you're sorry
e|--3----------------------------------(5)------------------------------------|
B|--1-----------------------------------3-------------------------------------|
G|--0-----------------------------------0-------------------------------------|
D|--2-----------------------------------0-------------------------------------|
A|--3----xxxxx----xxxxx----xxxxx----xxxx5-------------------------------------|
E|--------------------------------------5-------------------------------------|
(x's imply strumming pattern)

[Chorus]
  Oh, you got me, oh no, you got me again
  Oh no, it can't be, oh no, it never ends
e|-(3)------------------------------------------------------------------------|
B|-(3)------------------------------------------------------------------------|
G|--4---4---4---4---4---4---4-------------------------------------------------|
D|--5---5---5---5---5---5---5---12-------14--14--14--14--14--14--14-(12)------| 2x
A|--5---5---5---5---5---5---5---12-------14--14--14--14--14--14--14-(12)------|
E|--3---3---3---3---3---3---3---10-------12--12--12--12--12--12--12--10\------|

  There's no excuses to be clueless
e|--3---3---3---3---3---3---3---5--------3---3---3---3---3---3---3---5--------|
B|--1---1---1---1---1---1---1---3--------0---0---0---0---0---0---0---3--------|
G|--0---0---0---0---0---0---0---0--------0---0---0---0---0---0---0---0--------|
D|--2---2---2---2---2---2---2---0--------2---2---2---2---2---2---2---0--------|
A|--3---3---3---3---3---3---3---5--------2---2---2---2---2---2---2---5--------|
E|----------------------------------------------------------------------------|

   Oh, you got me, oh no, you got me again,
  (Oh) no more chances, (oh) no more answer
  (Oh) no more chances, (oh) no more answer, oh no!
e|-(3)------------------------------------------------------------------------|
B|-(3)------------------------------------------------------------------------|
G|--4---4---4---4---4---4---4-------------------------------------------------|
D|--5---5---5---5---5---5---5---12-------14--14--14--14--14--14--14-(12)------| 3x
A|--5---5---5---5---5---5---5---12-------14--14--14--14--14--14--14-(12)------|
E|--3---3---3---3---3---3---3---10-------12--12--12--12--12--12--12--10(\)----|


[Outro]
e|-(3)------------------------------------------------------------------------|
B|-(3)------------------------------------------------------------------------|
G|--4---4---4---4---4---4---4-------------------------------------------------|
D|--5---5---5---5---5---5---5---12-------14--14--14--14--14--14--14-----------|
A|--5---5---5---5---5---5---5---12-------14--14--14--14--14--14--14--12----5--|
E|--3---3---3---3---3---3---3---10-------12--12--12--12--12--12--12--10\---3--|




************************************

| \   slide down
| x   Mute note

************************************

            
            
Suggest correction
Creating personal tab
Creating personal tab
You can edit any tab online and save it as your Personal.

You can edit, replace or remove any tab part or add personal notes – all changes will be seen only by you.

Personal tabs can be accessed anytime from any device, even offline.
Learn more »
Give kudos to tab author, rate the tab!
1 2 3 4 5
comments
print report bad tab
3 comments total.
0 reply
patris72 132 Jul 11, 2016 10:08 AM

The intro should be :

e|-----------------------------------------------------------------------
B|--------------x------------------x------------------x--------------0--
G|--------0-----x------------0-----x------------0-----x------------2---2-
D|------0----0--x----------0----0--x----------0----0--x----------0-------
A|--0-2---------x------0-3---------x--------0---------x--------0---------
E|----------------------------------------3------------------2-----------

0 reply
Nicaz 2,081 Jul 25, 2016 01:52 PM

You're right, thank you! :)

0 reply
patris72 132 Jul 25, 2016 03:06 PM

No problem! :)

guest
You may want to rate the tab now too:
select rating
Wanna post a correction for this tab? Suggest correction