Oops, an error
Loading. Please wait.

Hello Hotline Bling Wut Do You Mean Mashup bass

190 views 1 this week
no commentswrite comment
1 2 3 4 5
3 more votes to show rating
add to favorites
×
Save as Personal and add changes to this tab that will be seen only by you. Learn more ›
×
You can save this tab as Personal to edit and correct it or add notes. All changes will be seen only by you. Learn more »
launch autoscroll
font size
0
reset
guitar tuner
edit
Autoscroll
slow
fast
+/-
esc
set tempo
stop
Author
Difficulty
Tuning: Standard

[Note]
First word at the very beginnng of each line
matches the first note that is played in that line.
That is why the lyric lines look a bit weird.


G|---------------------------------|---------------------------------|
D|---------------------------------|---------------------------------|
A|-10----------10-10---------------|-9-------------------------------|
E|---------------------------------|-------------7-7-----7h9/10p9-7--|

                                                    You used to call me on my
G|---------------------------------|---------------------------------|
D|-------------12-12---------------|-------11----9-------------------|
A|-10~~~~~\----10-10-----------10--|-9-------------------------------|
E|---------------------------------|-------------7-------------------|

  cell phone, late night when you need my love, call me on my
G|---------------------------------|---------------------------------|
D|---------------------------------|---------------------------------|
A|-10----------10-10---------------|-9-----9-------------------------|
E|---------------------------------|-------------7-7-------7---7h9\10|

  cell phone, late night when you need my love, and I know that
G|---------------------------------|---------------------------------|
D|---------------------------------|---------------------------------|
A|-10----------10-10---------10--10|-9-----9-------------------------|
E|---------------------------------|---------------7---------12\-----|

  hotline bling, oh, and that could only mean one thing, and I know that
G|---------------------------------|---------------------------------|
D|---------------------------------|---------------------------------|
A|---------------------------------|-------------2-2-----------------|
E|-3-3-3-------3-3-----------3---3-|-2-----------------------\-------|

  hotline bling, oh, and that could only mean one thing, but what do you
G|---------------------------------|---------------------------------|
D|---------------------------------|---------------------------------|
A|---------------------------------|---------------2-----------------|
E|-3-3-3-------3-3---------3---3-3-|-2-------------------------------|

  mean, when you nod your head yes but you wanna say no, what do you
G|---------------------------------|---------------------------------|
D|-12----12------------------------|---------------------------------|
A|-10----10----10-10---------10--10|-9-----9-------------------------|
E|---------------------------------|-------------7---------7---7h9\10|

  mean, when you don't want me to leave but then you tell me to go, and you wanna
G|---------------------------------|---------------------------------|
D|---------------------------------|---------------------------------|
A|-10----------10-10---------10--10|-9-----9-------------------------|
E|---------------------------------|-------------7-----------8\------|

  turn left and you wanna turn right, 'cause we argue all day, making love all night, oh, what do you 
G|---------------------------------|---------------------------------|
D|---------------------------------|---------------------------------|
A|---------------------------------|-------------2-------2-3---------|
E|-3~~~~~~~/---3-------------3-3-3-|-2-------------------------------|

  mean, oh, and where are you now
G|---------------------------------|---------------------------------|
D|---------------------------------|---------------------------------|
A|---------------------------------|-------------2-------------------|
E|-3~~~~~~~/---3-3-----------3---3-|-2--2--2-------------------------|

  hello from the other side
G|---------------------------------|---------------------------------|
D|---------------------------------|---------------------------------|
A|---------------------------------|-------------2-------------------|
E|-3-------------------------------|-2-------------------------------|

  I must've called a thousand times
G|---------------------------------|---------------------------------|
D|---------------------------------|---------------------------------|
A|---------------------------------|-------------2-------2h3---------|
E|-3-------------------------------|-2-------------------------------|

  To tell you I'm sorry for ever braking your heart, when I
G|---------------------------------|---------------------------------|
D|---------------------------------|---------------------------------|
A|---------------------------------|-------------2-------------2-----|
E|-3~~~~~~~/---3-3-----------------|-2-------------------------------|

  called you never seem to be home
G|---------------------------------|---------------------------------|
D|---------------------------------|---------------------------------|
A|-7---7---7---7---9---9---9---9---|-10--10--10~~~~~~~~~~~~~/12------|
E|---------------------------------|---------------------------------|

                                    so, why don't you call me on my 
G|---------------------------------|---------------------------------|
D|---------------------------------|---------------------------------|
A|---------------------------------|-(beat interlude)---------15\----|
E|---------------------------------|---------------------------------|

  cell phone, late nigth when you need my love, just call me on my
G|---------------------------------|---------------------------------|
D|---------------------------------|---------------------------------|
A|---------------------------------|-------------2-----------2-2h3p2-|
E|-3-----------3-3---3-------3---3-|-2-------------------------------|

  cell phone, late nigth when you need my love, and I know that 
G|---------------------------------|---------------------------------|
D|---------------------------------|---------------------------------|
A|---------------------------------|-------------2-------2-3---------|
E|-3~~~~~~~/---3-3-----------3---3-|-2---------2---------------------|

  hotline bling, oh, and that could only mean one thing, and I know that
G|---------------------------------|---------------------------------|
D|---------------------------------|---------------------------------|
A|---------------------------------|-------------2-2---------5-------|
E|-3-3-3-------3-3-----------3---3-|-2-----------------------------5-|

  hotline bling, oh, and that could only mean one thing
G|---------------------------------|---------------------------------|
D|---------------------------------|---------------------------------|
A|---------------------------------|-------------2-------------------|
E|-3~~~~~~~/---3-3-----------3---3-|-2---2---------------------------|

G|---------------------------------|-------------7-------------------|
D|-------12------------------------|-------11------------------------|
A|-10----------10------------------|-9-------------------------------|
E|---------------------------------|-------------7-------7h9/10p9-7--|

G|---------------------------------|---------------------------------|
D|---------------------------------|---------------------------------|
A|-10~~~~~~\---10-10---------------|-9-------------------------------|
E|---------------------------------|-------------7~~~~~~~~\----------|

************************************

| h   Hammer-on
| p   Pull-off
| /   Slide up
| \   Slide down
| ~   hold

************************************

            
            
Suggest correction
Creating personal tab
Creating personal tab
You can edit any tab online and save it as your Personal.

You can edit, replace or remove any tab part or add personal notes – all changes will be seen only by you.

Personal tabs can be accessed anytime from any device, even offline.
Learn more »
Give kudos to tab author, rate the tab!
1 2 3 4 5
comments
print report bad tab
guest
You may want to rate the tab now too:
select rating
Wanna post a correction for this tab? Suggest correction