Oops, an error
Loading. Please wait.

Imposter chords

1,918 views 57 this week
2 commentsread comments
1 2 3 4 5
x 7
add to favorites
×
Save as Personal and add changes to this tab that will be seen only by you. Learn more ›
×
You can save this tab as Personal to edit and correct it or add notes. All changes will be seen only by you. Learn more »
launch autoscroll
font size
0
reset
transpose
0
reset
simplify chords
display chords
guitar tuner
edit
Autoscroll
slow
fast
+/-
esc
set tempo
stop
Strumming
There is no strumming pattern for this song yet. and get +5 IQ
Tuning: Standard

[Chords]
    F  Fsus4  Gm  A  Am  Bb  C  C/C#  C#  Dm  Dm/C#
e|--x---x-----x---x--x---x---x---x----x---x----x-----|
B|--x---x-----x---x--x---x---5---5----6---6----6-----|
G|--2---3-----3---6--5---7---5---5----6---7----7-----|
D|--3---x-----5---7--7---8---5---5----6---7----7-----|
A|--3---3-----5---7--7---8---3---4----4---5----4-----|
E|--1---1-----3---5--5---6---------------------------|

[Verse 1]
F
  I’m looking in the mirror but that’s not me
Am
  It’s someone else who looks a little like me
Bb                   C#      C
  But they’re trying way too hard
F
  I go outside in borrowed clothes and borrowed shoes
Am
  It seemed like the most logical thing to do
Bb                        C#         C             F     Fsus4 F
  But it’s not safe to go out in the middle of the night

[Pre-Chorus]
Gm                         Am
  But it’s all my head has got
Bb
  To be everything I’m not
Dm                              C
Take me and paint me by numbers
Gm                       Am
  And though my head can try
Bb
  This happens every night
Dm                             C  C/C#
I’m not your sister or brother

[Chorus]
         Bb
I’m an imposter I know
         F        A
I’m an imposter I know
         Bb
I’m an imposter I know
        F                         A
And I’m loving the bluffing but I really know nothing no

[Interlude]
   Bb                                F             A
                                                   Really know nothing no
e|---------------------------------|---------------------------------|
B|---------------------------------|---------------------------------|
G|-----7-----7---7---9---10--9-7---|-----2-----2---6------6---6-6----|
D|-----x-----x---x---x---x---x-x---|-----3-----3---x------x---x-x----|
A|-8---8-----8---8---8---8---8-8---|-3---3-----3---7------7---7-7----|
E|-6---6-----6---6---6---6---6-6---|-1---1-----1---5------5---5-5----|

   Bb                                F             A
e|---------------------------------|---------------------------------|
B|---------------------------------|---------------------------------|
G|-----7-----7---7---9---10--9-7---|-----2-----2---6-----------------|
D|-----x-----x---x---x---x---x-x---|-----3-----3---7-----------------|
A|-8---8-----8---8---8---8---8-8---|-3---3-----3---7-----------------|
E|-6---6-----6---6---6---6---6-6---|-1---1-----1---5-----------------|

[Verse 2]
F
  I wile away the weeks with a sour face
Am
  Knowing now that someone else has took my place
Bb                     C#      C
  They're still trying way too hard
F
  I wished for this I know but now I take it back
Am
  I’ll return as the slowest in the wolfpack
Bb                 
  now those old flaws seem like bliss
Dm             Dm/C#        C
  just give me anything but this

[Chorus]
A            Bb
Oh, I’m an imposter I know
         F        A
I’m an imposter I know
         Bb
I’m an imposter, do you think they know
         F                         A
When I’m loving the bluffing but I really know nothing no

[Interlude]
   Bb                                F             A
                                                  Really know nothing no
e|---------------------------------|---------------------------------|
B|---------------------------------|---------------------------------|
G|-----7-----7---7---9---10--9-7---|-----2-----2---6------6---6-6----|
D|-----x-----x---x---x---x---x-x---|-----3-----3---x------x---x-x----|
A|-8---8-----8---8---8---8---8-8---|-3---3-----3---7------7---7-7----|
E|-6---6-----6---6---6---6---6-6---|-1---1-----1---5------5---5-5----|

   Bb                                F             A
e|---------------------------------|---------------------------------|
B|---------------------------------|---------------------------------|
G|-----7-----7---7---9---10--9-7---|-----2-----2---6-----------------|
D|-----x-----x---x---x---x---x-x---|-----3-----3---7-----------------|
A|-8---8-----8---8---8---8---8-8---|-3---3-----3---7-----------------|
E|-6---6-----6---6---6---6---6-6---|-1---1-----1---5-----------------|

[Bridge]
(play arpeggios!)
Gm                   Am
  And then the party stops
Bb                        Dm 
  And all the bodies swap back to their owners,
     C                 Gm
It’s horribly normal again
              Am    Bb 
Sweaty and confused,  I look around the room
Dm                           C    C/C#
I’m just like all of the others!

[Interlude]
   Bb   F   A
Oooohh
   Bb   F   A
Oooohh  Oh Ooh Oh

[Chorus]
         Bb
I’m an imposter I know
         F        A
I’m an imposter I know
         Bb
I’m an imposter, do you think they know
         F                         A
When I’m loving the bluffing but I really know- no no
Bb
Oh, I know
         F        A
I’m an imposter I know
         Bb
I’m an imposter, do you think they know
         F                         A
When I’m loving the bluffing but I really know nothing no

            
            
Suggest correction
Creating personal tab
Creating personal tab
You can edit any tab online and save it as your Personal.

You can edit, replace or remove any tab part or add personal notes – all changes will be seen only by you.

Personal tabs can be accessed anytime from any device, even offline.
Learn more »
comments
print report bad tab
2 comments total.
0 reply
lilysoaper13 10 Jun 19, 2017 02:04 PM

c/c# sounds better as an A I think

guest
You may want to rate the tab now too:
select rating
Wanna post a correction for this tab? Suggest correction