Oops, an error
Loading. Please wait.

Red Brick Paradise tab

55 views 1 this week
no commentswrite comment
1 2 3 4 5
2 more votes to show rating
add to favorites
×
Save as Personal and add changes to this tab that will be seen only by you. Learn more ›
×
You can save this tab as Personal to edit and correct it or add notes. All changes will be seen only by you. Learn more »
launch autoscroll
font size
0
reset
how to read this tab
guitar tuner
edit
Autoscroll
slow
fast
+/-
esc
set tempo
stop
Author
Difficulty
Tuning: Standard

[Intro]
  (play with plectrum)
e|---------------------------x-x---|
B|---------------------------x-x---|
G|---------------------------x-x---|
D|---------------------------x-x---|
A|---------------------------x-x---|
E|---------------------------x-x---|

[Verse 1]
e|---------------------------------|---------------------------------|
B|---------------------------------|---------------------------------|
G|-7---x-------x-------x-------x---|-7---x-------x---7---7-----5-x---|
D|-8---x-------x-------x-------x---|-8---x-------x---7---7-----5-x---|
A|-8---x-------x-------x-------x---|-8---x-------x---5---5-----3-x---|
E|-6---x-------x-------x-------x---|-6---x-------x---------------x---|

e|---------------------------------|---------------------------------|
B|---------------------------------|-6-------------------------------|
G|-7---x-------x-------x-------x---|-7---x-------x-3-----x-5---5-x---|
D|-8---x-------x-------x-------x---|-7---x-------x-5-----x-7---7-x---|
A|-8---x-------x-------x-------x---|-5---x-------x-5-----x-7---7-x---|
E|-6---x-------x-------x-------x---|-----x-------x-3-----x-5---5-x---|

e|---------------------------------|---------------------------------|
B|---------------------------------|---------------------------------|
G|-7---x-------x-------x-------x---|-----x-------x---7---7-----5-x---|
D|-8---x-------x-------x-------x---|-----x-------x---7---7-----5-x---|
A|-8---x-------x-------x-------x-8-|-----x-------x---5---5-----3-x---|
E|-6---x-------x-------x-----5-x-6-|-----x-------x---------------x---|

e|---------------------------------|---------------------------------|
B|---------------------------------|-6-------------------------------|
G|-7---x-------x-------x-------x---|-7---x-------x-------------------|
D|-8---x-------x-------x-------x---|-7---x-------x---5-------7-------|
A|-8---x-------x-------x-------x---|-5---x-------x---5-------7-------|
E|-6---x-------x-------x-------x---|-----x-------x---3-------5-------|

[Pre-Chorus]
e|----------------6---6-6----6-6-6-|---------------------------8-----|
B|----------------6---6-8----8-8-8-|---------------------------10--6-|
G|-----7-----7-7--7---7-7----7-7-7-|----9----9--9--9-----9-----9---7-|
D|-----8-----8-8--8---8-x----x-x-x-|----10---10-10-10----10----x---8-|
A|-----8-----8-8--8---8-8----8-8-8-|----10---10-10-10-10-10----10--8-|
E|-6---6-----6-6-------------------|-8--8----8--8--8--8--8---------6-|

e|----------------6---6-6----------|---------------------------x-x---|
B|----------------6---6-8---8-8-8--|---------------------------x-x---|
G|-----7-----7-7--7---7-7---7-7-7--|-----9---9--9--9--9--------x-x---|
D|-----8-----8-8--8---8-x---x-x-x--|-----10--10-10-10-10-------x-x---|
A|-----8-----8-8--8---8-8---8-8-8--|-----10--10-10-10-10-------x-x---|
E|-----6-----6-6-------------------|-8---8---8--8--8--8--------x-x---|

[Chorus]
e|---------------------------------|---------------------------------|
B|-1-------------------------1-----|-1-------------------------------|
G|-2---x-------x-------x-----0-x---|-2---x-------x-------x-------x---|
D|-3---x-------x-------x-----2-x---|-3---x-------x-------x-------x---|
A|-3---x-------x-------x-----3-x---|-3---x-------x-------x-------x---|
E|-1---x-------x-------x-----3-x---|-1---x-------x-------x-------x---|

e|---------------------------------|---------------------------x-x---|
B|---------------------------------|-----------1---------------x-x---|
G|-7---x-------x---9---x-------x---|-----2-----3---2-2---------x-x---|
D|-8---x-------x---10--x-------x---|-----3-----x---3-3---------x-x---|
A|-8---x-------x---10--x-------x---|-----3-----3---3-3---------x-x---|
E|-6---x-------x---8---x-------x---|-1---1-----1---1-1---------x-x---|

e|---------------------------------|---------------------------------|
B|-1-----1-------1-----1-----1-1---|---------------------------------|
G|-2---x-2-(2)-x-2-----2-----0-0---|-2---x-2-----x-2-----2-----3-3---|
D|-3---x-3-(3)-x-3-----3-----2-2---|-3---x-3-----x-3-----3-----5-5---|
A|-3---x-3-(3)-x-3-----3-----3-3---|-3---x-3-----x-3-----3-----5-5---|
E|-1---x-1-(1)-x-1-----1-----3-3---|-1---x-1-----x-1-----1-----3-3---|

e|---------------------------------|---------------------x-----x-x---|
B|---------------------------------|-----------1---1-1---x-----x-x---|
G|/7---x-7---7-7---10--10--9---9---|-2---2-----3---2-2---x-----x-x---|
D|/8---x-8---8-8---11--11--10--10--|-3---3-----x---3-3---x-----x-x---|
A|/8---x-8---8-8---11--11--10--10--|-3---3-----3---3-3---x-----x-x---|
E|/6---x-6---6-6---9---9---8---8---|-1---1-----1---1-1---x-----x-x---|

[Verse 2]
e|---------------------------------|---------------------------------|
B|---------------------------------|---------------------------------|
G|-7---x-------x-------x-------x---|-----x-------x---7---7-----5-5---|
D|-8---x-------x-------x-----7-x---|-8---x-------x---7---7-----5-5---|
A|-8---x-------x-------x-----7-x---|-8---x-------x---5---5-----3-3---|
E|-6---x-6---6-x-6-6-6-x-6-6-5-x---|-6---x-6-6-6-x-------------------|

e|---------------------------------|---------------------------------|
B|---------------------------------|---------------------------------|
G|-7---x-7---7-x-7---7-x-7---7-x---|-7---x-7---7-x---7---7-----5-x---|
D|-8---x-8---8-x-8---8-x-8---8-x---|-8---x-8---8-x---7---7-----5-x---|
A|-8---x-8---8-x-8---8-x-8---8-x---|-8---x-8---8-x---5---5-----3-x---|
E|-6---x-6---6-x-6---6-x-6---6-x---|-6---x-6---6-x---------------x---|

[Pre-Chorus]
e|---------------------------------|---------------------------------|
B|---------------------------------|---------------------------------|
G|-7---x-------x-------x-----5-x-7-|-----x-------x-------x-----5-x---|
D|-8---x-------x-------x-----7-x-8-|-----x-------x-------x-----7-x---|
A|-8---x-------x-------x-----7-x-8-|-----x-------x-------x-----7-x---|
E|-6---x-------x-------x-----5-x-6-|-----x-------x-------x-----5-x---|

e|---------------------------------|---------------------------------|
B|---------------------------------|---------------------------------|
G|-7-------------------------------|-3---------------5---------------|
D|-8-------------------------------|-5---------------7------(7)(7)(7)|
A|-8-------------------------------|-5---------------7------(7)(7)(7)|
E|-6-------------------------------|-3---------------5------(5)(5)(5)|

e|---------------------------------|
B|---------------------------------|
G|-7-----------------9-----9---9---|
D|-8-------8---8-----10----10--10--|
A|-8-------8---8-----10----10--10--|
E|-6---6---6---6---8-8---8-8---8---|

[Chorus]
e|---------------------------------|---------------------------------|
B|-1-----1-1-1---1---1-------1-1---|---------------------------------|
G|-2---x-2-2-2-x-2---2-------0-0---|-2---x-2---2-x-2---2-2-----3-3---|
D|-3---x-3-3-3-x-3---3-------2-2---|-3---x-3---3-x-3---3-3-----5-5---|
A|-3---x-3-3-3-x-3---3-------3-3---|-3---x-3---3-x-3---3-3-----5-5---|
E|-1---x-1-1-1-x-1---1-------3-3---|-1---x-1---1-x-1---1-1-----3-3---|

e|---------------------------------|---------------------------------|
B|---------------------------------|-1-----1---1-1/--1-----1----1----|
G|/7---x-7---7-7---9---x-9---9--9--|-2---x-2---2-2/--2---x-2----0----|
D|/8---x-8---8-8---10--x-10--10-10-|-3---x-3---3-3/--3---x-3----2----|
A|/8---x-8---8-8---10--x-10--10-10-|-3---x-3---3-3/--3---x-3----3----|
E|/6---x-6---6-6---8---x-8---8--8--|-1---x-1---1-1/--1---x-1----3----|

e|---------------------------------|---------------------------------|
B|-1-----1-------1---1-1-----1-1---|---------------------------------|
G|-2---x-2-----x-2---2-2-----0-0---|-2---x-2---2-x-2---2-x-----3-3---|
D|-3---x-3-----x-3---3-3-----2-2---|-3---x-3---3-x-3---3-x-----5-5---|
A|-3---x-3-----x-3---3-3-----3-3---|-3---x-3---3-x-3---3-x-----5-5---|
E|-1---x-1-----x-1---1-1-----------|-1---x-1---1-x-1---1-x-----3-3---|

e|---------------------------------|---------------------------------|
B|---------------------------------|-----------1---1-1---------------|
G|/7---x-7---7-7---10--10--9---9---|-2---2-----3---2-2---------------|
D|/8---x-8---8-8---11--11--10--10--|-3---3-----x---3-3---------------|
A|/8---x-8---8-8---11--11--10--10--|-3---3-----3---3-3---------------|
E|/6---x-6---6-6---9---9---8---8---|-1---1-----1---1-1---------------|

[Interlude]
  (switch to finger picking)
e|---------------------------------|---------------------------------|
B|---------------------------------|---------------------------------|
G|-14--12--------14----12--------14|-----12--------12----10--------14|
D|---------------------------------|---------------------------------|
A|---------------------------------|---------------------------------|
E|-13--13--13--13--13--13--13--13--|-13--13--13--11--11--11--11--11--|

e|---------------------------------|---------------------------------|
B|---------------------------------|---------------------------------|
G|-----12--------14----12--------14|-----12--------12----10--------14|
D|---------------------------------|---------------------------------|
A|---------------------------------|---------------------------------|
E|-13--13--13--13--13--13--13--13--|-13--13--13--11--11--11-------13-|

[Bridge]
e|---------------------------------|---------------------------------|
B|---------------------------------|---------------------------------|
G|-----12--------14-----12-------14|-----12--------12----10--------14|
D|---------------------------------|---------------------------------|
A|---------------------------------|---------------------------------|
E|-13--13--13--13-13-13-13--13--13-|-13--13--13--11--11--11--11--11--|

e|---------------------------------|---------------------------------|
B|---------------------------------|---------------------------------|
G|-----12----------14---12-------14|-----12--------12----10--------14|
D|---------------------------------|---------------------------------|
A|---------------------------------|---------------------------------|
E|-13--13--13-13-13-13--13--13--13-|-13--13--13--11--11--11--11-11-13|

e|-------------------------------------------------|
B|-------------------------------------------------|
G|-------12-------------14-------12-------------14-|
D|-------------------------------------------------|
A|-------------------------------------------------|
E|-13-13-13-13-13-13-13-13-13-13-13-13-13-13-13-13-|

e|-------------------------------------------------|
B|-------------------------------------------------|
G|-------12-------------12-------10-------------14-|
D|-------------------------------------------------|
A|-------------------------------------------------|
E|-13-13-13-13-13-13-13-11-11-11-11-11-11-11-11-13-|

e|-------------------------------------------------|
B|-------------------------------------------------|
G|-------12-------------14-------12-------------14-|
D|-------------------------------------------------|
A|-------------------------------------------------|
E|-13-13-13-13-13-13-13-13-13-13-13-13-13-13-13-13-|

e|---------------------------------------------x-x-|
B|---------------------------------------------x-x-|
G|-------12-------------12---------------------x-x-|
D|------------------------(switch to plectrum)-x-x-|
A|---------------------------------------------x-x-|
E|-13-13-13-13-13-13-13-11---------------------x-x-|

e|---------------------------------|---------------------------------|
B|-10----8---8--8--10----8----8--8-|-10-10-10-8---8--8--8-xxx-x-x-x-x|
G|-10--x-10--10-10-10--x-10---10-10|-10-10-10-10--10-10-8-xxx-x-x-x-x|
D|-10--x-10--10-10-10--x-10---10-10|-10-10-10-10--10-10-8-xxx-x-x-x-x|
A|-8---x-8---8--8--8---x-8----8--8-|-8--8--8--8---8--8--6-xxx-x-x-x-x|
E|-----x---------------x-----------|---------------------------------|

[Chorus]
e|---------------------------------|---------------------------------|
B|-1-----1---1---1---1-------1-1---|---------------------------------|
G|-2---x-2---2-x-2---2-------0-0---|-2---x-2---2-x-2---2-2-----3-3---|
D|-3---x-3---3-x-3---3-------2-2---|-3---x-3---3-x-3---3-3-----5-5---|
A|-3---x-3---3-x-3---3-------3-3---|-3---x-3---3-x-3---3-3-----5-5---|
E|-1---x-1---1-x-1---1-------3-3---|-1---x-1---1-x-1---1-1-----3-3---|

e|---------------------------------|---------------------------------|
B|---------------------------------|-1-----1---1---1-----------------|
G|/7---x-7---7-7---9---x-9---9--9--|-2---x-2---2-x-2-x-3-x-5-x-9---x-|
D|/8---x-8---8-8---10--x-10--10-10-|-3---x-3---3-x-3-x-5-x-7-x-10--x-|
A|/8---x-8---8-8---10--x-10--10-10-|-3---x-3---3-x-3-x-5-x-7-x-10--x-|
E|/6---x-6---6-6---8---x-8---8--8--|-1---x-1---1-x-1-x-3-x-5-x-8---x-|

e|---------------------------------|---------------------------------|
B|-1-----1-1-1---1---1-1-----1-1---|---------------------------------|
G|-2---x-2-2-2-x-2---2-2-----0-0---|-2---x-2---2-x-2---2-x-3---3-3---|
D|-3---x-3-3-3-x-3---3-3-----2-2---|-3---x-3---3-x-3---3-x-5---5-5---|
A|-3---x-3-3-3-x-3---3-3-----3-3---|-3---x-3---3-x-3---3-x-5---5-5---|
E|-1---x-1-1-1-x-1---1-1-----------|-1---x-1---1-x-1---1-x-3---3-3---|

e|---------------------------------|---------------------------x-x---|
B|---------------------------------|---------------------------x-x---|
G|/7---x-7---7-7---10--10--9---9---|-2---2---2---2---x---------x-x---|
D|/8---x-8---8-8---11--11--10--10--|-3---3---3---3---x---------x-x---|
A|/8---x-8---8-8---11--11--10--10--|-3---3---3---3---x---------x-x---|
E|/6---x-6---6-6---9---9---8---8---|-1---1---1---1---x---------x-x---|

[Interlude]
e|---------------------------------|---------------------------------|
B|-1---1-----1-1-1-----1---------1-|-----1---------8-----6-----6---1-|
G|-2---0-----0-0-2-----0---------2-|-----8---------8-----8-----8---2-|
D|-3---3-----3-3-3-----3---------3-|-----3---------8---8-8---8-8-8-3-|
A|-3---3-----3-3-3-3-3-3-----3-3-3-|---3-3---------6---8-6---6-6-6-3-|
E|-1---1-----1-1-1-1-1-1-----1-1-1-|---1-1-------------------------1-|
                                                          
e|---------------------------------|---------------------------------|
B|-----1---------1-----1---------1-|-----1---------8-----6(switch)-10|
G|-----0---------2-----0---------2-|-----8---------8-----8--(to)-----|
D|-----3---------3-----3---------3-|-----3-----8-8-8-----8(finger)---|
A|-----3-----3-3-3-3-3-3-----3-3-3-|-3-3-3-----6-6-6-----6(picking)8-|
E|-----1-----1-1-1-1-1-1-----1-1-1-|-1-1-1---------------------------|

[Outro]
e|---------------------------------|---------------------------------|
B|---8-----------10----8-----------|-10----8-----------8-----6-------|
G|---------------------------------|---------------------------------|
D|---------------------------------|---------------------------------|
A|-8---8---8---8---8---8---8---8---|-8---8---8---8---6---6---6---6---|
E|---------------------------------|---------------------------------|
                                    (slow down)
e|---------------------------------|---------------------------------|
B|-----10----8-----------10----8---|---------10----6-----------8---6-|
G|---------------------------------|---------------------------------|
D|---------------------------------|---------------------------------|
A|-6---8---8---8---8---8---8---8---|-8---8---8---8---8---8---6---6---|
E|---------------------------------|---------------------------------|

************************************

| /   Slide up
| x   Mute note
| ()  Ghost note

************************************

            
            
Suggest correction
Creating personal tab
Creating personal tab
You can edit any tab online and save it as your Personal.

You can edit, replace or remove any tab part or add personal notes – all changes will be seen only by you.

Personal tabs can be accessed anytime from any device, even offline.
Learn more »
Give kudos to tab author, rate the tab!
1 2 3 4 5
comments
print report bad tab
guest
You may want to rate the tab now too:
select rating
Wanna post a correction for this tab? Suggest correction