Oops, an error
Loading. Please wait.

Sixteen chords

version 3
version 3

Whole song

67 views 1 this week
no commentswrite comment
1 2 3 4 5
3 more votes to show rating
add to favorites
×
Save as Personal and add changes to this tab that will be seen only by you. Learn more ›
×
You can save this tab as Personal to edit and correct it or add notes. All changes will be seen only by you. Learn more »
launch autoscroll
font size
0
reset
transpose
0
reset
simplify chords
display chords
guitar tuner
edit
Autoscroll
slow
fast
+/-
esc
set tempo
stop
Author
Strumming
There is no strumming pattern for this song yet. and get +5 IQ
Version:
https://www.youtube.com/watch?v=W7hNepu541w
Filmed in Merrion Square, 2011

Tuning: Standard


   Cmaj9/B  Gm(1)  Gm(2)  Bb(1)  Bb(2)  C*   F    Am   Dm
e|---0------10------3------6------1-----x----1----0----1------|
B|---1------11------5------6------3-----5----1----1----3------|
G|---0------12------5------7------3-----5----2----2----2------|
D|---0------12------3------8------3-----5----3----2----0------|
A|---2------10------3------8------1-----4----3----0----0------|
E|---x------10------3------6-----------------1----------------|

[Intro]
Dm (single strum)

[Chorus]
        Dm                  Am
And she was no beauty queen
           C                G
She was in love at just sixteen
        F     Am  Dm                         Am
With an older boy who hardly knew her name

e|-0h3---3-3------x-x--|
B|-0h3---3-3/5\3--3-0--|
G|-0-----0-0------0-0--|
D|-0-------------------|
A|-2-------------------|
E|-3-------------------|
          Dm               Am
She would think of him and say
C                     G
You will be mine some day
        F        Am     Dm                                  Am
But her head was filled with things that could have been
      G
And she was just sixteen

Dm Am C 

e|-0h3-3-3-3------x-x--|
B|-0h3-3-3-3/5\3--3-0--|
G|-0---0-0-0------0-0--|
D|-0-------------------|
A|-2-------------------|
E|-3-------------------|


[Verse]
    Dm                   Am
Her head was filled with fairydust and gold
    Cmaj9/B   C
She never 

e|---------------------|
B|---------------------|
G|-0h2p0---------------|
D|--------2p0----------|
A|-------------3-------|
E|---------------------|
G
did what she was told
        Dm                          Am             
But she knew what she wanted from a very young age
Cmaj9/B  C                          G
Didn't  care about a job ar give a damn about a wage

Dm
She just wanted him
        Am
And she wanted him for good
    Cmaj9/B   C                   G
She would  do whatever it took, whatever she could
    Dm                                Am
And now she can't stop loving him she never meant to start
    C                              G
But what else can you expect from a foolish heart

e|-0h3-3-3-3--------|
B|-0h3-3-3-3/5\3p0--|
G|-0---0-0-0--------|
D|-0----------------|
A|-2----------------|
E|-3----------------|


[Chorus]
        Dm                  Am
And she was no beauty queen
    Cmaj9/B  C                G
She  was  in love at just sixteen
        F     Am Dm                          Am
With an older boy who hardly knew her name

e|-0h3---3-3------x-x--|
B|-0h3---3-3/5\3--3-0--|
G|-0-----0-0------0-0--|
D|-0-------------------|
A|-2-------------------|
E|-3-------------------|
          Dm               Am
She would think of him and say

e|------(0)----|
B|------(1)----|
G|------(0)----|
D|------(2)----|
A|-0--2--3-----|
E|-------------|
C                     G
You will be mine some day
        F        Am    Dm                                  Am
But her head was filled with things that could have been
      G
And she was just sixteen

Dm Am C 

e|-0h3-3-3-3-------x--|
B|-0h3-3-3-3/5\3---0--|
G|-0---0-0-0-------0--|
D|-0------------------|
A|-2------------------|
E|-3------------------|


[Verse]
Dm                            Am
Age is but a number she would say and she'd believe
Cmaj9/B  C                                  G
But four years is way too long to wear your heart on your sleeve
                Dm                               Am                    Cmaj9/B
And she thought maybe it's time to move on, it's been too long romance is gone
C                            G
Sung is the song and now this feels all wrong
         Dm                  Am
And in a world of advice she feels so small
        C                                  G
Someone better tell this girl it's probably not love at all

e|-(3)(0)(0)-0----0--0--0----0--x-(x)-|
B|-(3)(3)(3)-1h3--3--3--1h3--3--x-(x)-|
G|--0--0--0--0----0--0--0----0--x-(x)-|
D|--0--0--0------(0)(0)-----(0)-x-(x)-|
A|--2--2--2---------------------x-(x)-|
E|--3--3--3---------------------x-(x)-|


[Chorus]        
        Dm                  Am
And she was no beauty queen
    Cmaj9/B  C                G
She  was in  love at just sixteen
        F     Am  Dm                         Am  G
With an older boy who hardly knew her name
          Dm               Am
She would think of him and say

e|------(0)----|
B|------(1)----|
G|------(0)----|
D|------(2)----|
A|-0--2--3-----|
E|-------------|
C                     G
You will be mine some day
        F        Am    Dm                                 Am
But her head was filled with things that could have been
      G
And she was just sixteen


[Bridge]
Gm(1)  Bb(1)             F                           C (barré 3rd)
    Oh no, here she goes again, here she goes again, here she goes again
Gm(1)  Bb(1)             F                           C (barré 3rd)
    Oh no, here she goes again, here she goes again

Gm(2)                            Bb(2)
And she got what she wanted when he returned her love
    F                          C (barré 3rd)
And everything was cosy yes he fit herlike a glove
           Gm(2)                                     Bb(2)
She always dreamt of things she never had though she knew that it was wrong
    F                                       C (barré 3rd)
And he blinked and she blinked and suddenly thirty years were gone
                        C*
They remembered all the times that she


[Chorus]
Dm                  Am
was no beauty queen
           C                G
She was in love at just sixteen
        F     Am  Dm                         Am
With an older boy who hardly knew her name

e|-0h3-3-3-3------x-x--|
B|-0h3-3-3-3/5\3--3-0--|
G|-0---0-0-0------0-0--|
D|-0---0-0-0------0-0--|
A|-2-------------------|
E|-3-------------------|
          Dm               Am
She would think of him and say

e|------(0)----|
B|------(1)----|
G|------(0)----|
D|------(2)----|
A|-0--2--3-----|
E|-------------|
C                     G
You will be mine some day
        F        Am    Dm                                 Am
But her head was filled with things that could have been
      G                      Dm (single strum)
And she was just sixteen



************************************

| x    Dead note
| (n)  Ghost note
| h    Hammer-on
| p    Pull-off
| /    Slide up
| \    Slide down

************************************

            
            
Suggest correction
Creating personal tab
Creating personal tab
You can edit any tab online and save it as your Personal.

You can edit, replace or remove any tab part or add personal notes – all changes will be seen only by you.

Personal tabs can be accessed anytime from any device, even offline.
Learn more »
Give kudos to tab author, rate the tab!
1 2 3 4 5
comments
print report bad tab
guest
You may want to rate the tab now too:
select rating
Wanna post a correction for this tab? Suggest correction