Oops, an error
Loading. Please wait.

Stranger chords

37 views 1 this week
no commentswrite comment
1 2 3 4 5
2 more votes to show rating
add to favorites
×
Save as Personal and add changes to this tab that will be seen only by you. Learn more ›
×
You can save this tab as Personal to edit and correct it or add notes. All changes will be seen only by you. Learn more »
launch autoscroll
font size
0
reset
transpose
0
reset
display chords
guitar tuner
edit
Autoscroll
slow
fast
+/-
esc
set tempo
stop
Author
Difficulty
Strumming
There is no strumming pattern for this song yet. and get +5 IQ
Tuning: Standard

[Note]
Write a comment if you find any misheard lyrics!


[Intro]
e|---------------------------------|---------------------------------|
B|---------------------------------|---------------------------------|
G|-9-----8---9---8---9---8h9---8---|-9-----8---9---8---9---8h9---8---|
D|-9-----9---9---9---9---9-----9---|-9-----9---9---9---9---9-----9---|
A|---------------------------------|---------------------------------|
E|---------------------------------|---------------------------------|

e|---------------------------------|---------------------------------|
B|-9-----7---9---7---9---7h9---7---|-9-----7---9---7---9---7h9--(7)--|
G|-9-----9---9---9---9---9-----9---|-9-----9---9---9---9---9----(9)--|
D|---------------------------------|---------------------------------|
A|---------------------------------|---------------------------------|
E|---------------------------------|---------------------------------|


[Verse 1]
A                 E        B
  Every once in a while it hits me
A                     E                            B
  Like a bullet I can only really hope that you'll miss me
       A            E
You're hoping for a change
      B
But I hope you stay the same
F#m                  C#m                    B
   But I might gonna wreck it if I speak my mind, speak my mind, speak my mind


[Chorus]
                A
When you're not there
E           B
  Oh, I get scared that you'll become a stranger
G#m A                E     B
      That you'll become a stranger
                A
When you're not there
               E                      B
And out of the blue I don't recognize you
B
I guess it's human nature
F#m          C#m   B
I guess it's human nature
F#m           C#m    B
That you'll become a stranger


[Verse 2]
A                   E              B
  When you get on a plane do you remember
A                    E                B
Neither one of us can keep this all together
       A                    E
At the Broad you're walking down
          B
Will they bring you back around
F#m              C#m                       B
   I got a funny feeling that we're out of time
F#m                  C#m                    B
   But I might gonna wreck it if I speak my mind, speak my mind, speak my mind


[Chorus]
                A
When you're not there
E           B
  Oh, I get scared that you'll become a stranger
G#m A                E     B
      That you'll become a stranger
                A
When you're not there
               E                      B
And out of the blue I don't recognize you
B
I guess it's human nature
F#m          C#m   B
I guess it's human nature
F#m           C#m    B
That you'll become a stranger


[Bridge]
F#m               G#m    A
   When you're up in the clouds
B       C#m
I won't bring you down
        B
I won't bring you down
F#m               G#m     A
   but you didn't stick around
B       C#m
I won't bring you down
        B
I won't bring you down

e|---------------------------------|
B|---------------------------------|
G|-9-----8---9---8---9\------------|
D|-9-----9---9---9---9\------------|
A|---------------------------------|
E|---------------------------------|


[Chorus]
                A
When you're not there
E           B
  Oh, I get scared that you'll become a stranger
G#m A                E     B
      That you'll become a stranger
                A
When you're not there
               E                      B
And out of the blue I don't recognize you
B
I guess it's human nature
F#m          C#m   B
I guess it's human nature
F#m           C#m    B
That you'll become a stranger


[Post-Chorus]
               A
Don't become a stranger
E                B
  Don't become a stranger
               A
Don't become a stranger
E                B
  Don't become a stranger

        G#m    A
Don't become a stranger
E                B
  Don't become a stranger
               A
Don't become a stranger
E                B
  Don't become a stranger


[Outro]
  Don't become a- 
e|---------------------------------|
B|---------------------------------|
G|-9---9-8---9---8---9\------------|
D|-9---9-9---9---9---9\------------|
A|---------------------------------|
E|---------------------------------|
Suggest correction
Creating personal tab
Creating personal tab
You can edit any tab online and save it as your Personal.

You can edit, replace or remove any tab part or add personal notes – all changes will be seen only by you.

Personal tabs can be accessed anytime from any device, even offline.
Learn more »
Give kudos to tab author, rate the tab!
1 2 3 4 5
comments
print report bad tab
guest
You may want to rate the tab now too:
select rating
Wanna post a correction for this tab? Suggest correction