Oops, an error
Loading. Please wait.

The Sound Somebody Else 1975 Mashup Tab

28 views 21 this week
no commentswrite comment
1 2 3 4 5
2 more votes to show rating
add to favorites
launch autoscroll
font size
0
reset
how to read this tab
guitar tuner
Autoscroll
slow
fast
+/-
esc
set tempo
stop
Help us to improve Ultimate-Guitar.com Take our survey!
×
Author
Difficulty
Capo
intermediate
4th fret
About this tab version
The song is played without a plectrum. This tab contains everything that is important to play it, but you still have to listen to the song and add some ghost strums in between some parts to make it sound like Orla played it. Was this info helpful? Yes No
Tuning: Standard
Capo:   4th Fret

Note: Song is played without a plectrum.

e|------x-------x-------x-------x----|
B|------x-------x-------x-------x----|
G|------x-------x-------x-------x----|
D|------x-------x-------x-------x----|
A|------x-------x-------x-------x----|
E|------x-------x-------x-------x----|

  well I know when you're around 'cause I know the sound, I know the sound of your heart
e|------x-------x-------x------------|------x-------x-------x------------|
B|------x-------x-------x -----------|------x-------x-------x -----------|
G|--2---x-------x-------x-------0-0--|--2---x-------x-------x-------0-0--|
D|------x-------x-------x------------|------x-------x-------x------------|
A|------x-------x-------x------------|------x-------x-------x------------|
E|--1---x-------x-------x-------0-0--|--1---x-------x-------x-------0-0--|

  well I know when you're around 'cause I know the sound, I know the sound of your heart
e|------x-------x-------x------------|------x-------x--------------------|
B|------x-------x-------x -----------|------x-------x--------------------|
G|--2---x-------x-------x-------0-0--|--2---x-------x---4----------------|
D|------x-------x-------x------------|------x-------x--------------------|
A|------x-------x-------x------------|------x-------x--------------------|
E|--1---x-------x-------x-------0-0--|--1---x-------x---3----------------|

  I cant believe I forgot your name, Oh baby won't you come again?
  You said "I've got a problem with your
e|------------------------------x----|--------------x--------------------|
B|------------------------------x----|--------------x--------------------|
G|------------------------------x----|--------------x---------------x----|
D|------------------------------x----|--------------x---------------x----|
A|-----3------3s5-3------3------x----|-----3--------x--------3------x----|
E|--1-----1-----------1-----1---x----|--1-----1-----x-----1-----1---x-(1)|

  shoes and your tunes, but I might move in" and
  "I thought that you were straight, now I'm wondering"
e|--------------x---------------x----|-----------------------------------|
B|--------------x---------------x----|-----------------------------------|
G|--------------x---------------x----|-----------------------------------|
D|--------------x---------------x----|-----------------------------------|
A|-----3--------x--------3------x----|-----------------------------------|
E|--1-----1-----x-----1-----1---x----|--3--------------------------------|

  You're so conceited, I said "I love you", what does it matter if I lie to you?
e|--x--x--------x---------------x----|--x--x--------x---------------x----|
B|--1--1--0-----x-----0--0------x----|--1--1--0-----x-----0--0------x----|
G|--0--0--0-----x-----0--0--2---x----|--0--0--0-----x-----0--0--2---x----|
D|--2--2--0-----x-----2--2--x---x----|--2--2--0-----x-----2--2--x---x----|
A|--0--0--x-----x-----2--2--3---x----|--0--0--x-----x-----2--2--3---x----|
E|-(0)(0)-3-----x-----0--0--1---x----|-(0)(0)-3-----x-----0--0--1---x----|

  I don't regret it but I'm glad that we're through,
  so don't you tell me that you 'just don't get it', cause I know you do
e|--x--------------------------------|-----------------------------------|
B|--1-----0-----------0--------------|--6-6-6-6-6---8--------------------|
G|--0-----0-----------0-----2-----2--|--x-x-x-x-x---x--------------------|
D|--2-----0-----------2-----x-----x--|--7-7-7-7-7---9--10--10------------|
A|--0-----x-----------2-----3-----3--|--5-5-5-5-5---7---8---8------------|
E|-(0)----3-----------0-----1---1-1--|--------------------------10\------|

  well I know when you're around 'cause I know the sound, I know the sound of your heart
e|-----------------------------------|-(3)---(3)-------------------------|
B|--1-----1-----1---1-----1-----1----|--0-----0-------1-------0-----0----|
G|--2-----2-----2---0-----0-----0----|--0-----0-------0-------0-----0----|
D|--3-----3-----3---0h2---2-----2----|--0-----0-------2-------2-----2----|
A|--3-----3-----3---3-----3-----3----|--x-----x-----x-0-------2-----2----|
E|-(1)---(1)---(1)-(0)---(0)---(0)---|--3-----3----(3)------x-0-----0----|

  well I know when you're around 'cause I know the sound, I know the sound of your heart
e|-----------------------------------|-----------------------------------|
B|--1-----1-----1--------------------|----------------1-------0----------|
G|--2-----2-----2---5-----5-----5----|--4-----4-------0-------0----------|
D|--3-----3-----3---5-----5-----5----|--x-----x-------2-------2----------|
A|--3-----3-----3---3-----3-----3----|--5-----5-----x-0-------2-----x----|
E|-(1)---(1)---(1)-------------------|--3-----3-----x-------x-0-----x----|

  and I heard you found somebody else
e|-----------------------------------|-----------------------------------|
B|--1--------------/3----------------|-----------------------------------|
G|--2--------------/4----------------|--5--------------------------------|
D|--3--------------/5----------------|--5--------------------------------|
A|--3--------------/5----------------|--3--------------------------------|
E|-(1)------------(/3)---------------|-----------------------------------|

  and at first I thought it was a lie, so I took all of my
e|-----------------------------------|-----------------------------------|
B|-----------------------------------|-----------------------------------|
G|--------0---------------4----------|--------5-----------------------0--|
D|---(3)-------------(5)-------------|---(5)------------------------2----|
A|-----------------------------------|-----------------------------------|
E|--1--(1)----------3--(3)-----------|--5--(5)------------------0--------|

  things that make sounds, The rest I can do without
e|-----------------------------------|-------------------------------------|
B|-----------------------------------|-------------------------------------|
G|--------2---------------4----------|--------4-------------5-------4--\2--|
D|----3---------------5--------------|----5---------------5----------------|
A|-----------------------------------|----------------------------5--------|
E|--1---1-----------3---3------------|--4---4-----------5-----5\3-----3\1--|

e|--------------------------x--------|
B|--------------------------x--------|
G|--------------------------x--------|
D|--------------------------x--------|
A|--------------------------x--------|
E|--------------------------x--------|

  'cause I don't want your body but I hate to think about you with somebody else
e|-----------------------------------|-(3)---(3)---(3)-(3)---(3)---(3)---|
B|--1-----1-----1---1-----1-----1----|--0-----0-----0---0-----0-----0----|
G|--2-----2-----2---0-----0-----0----|--0-----0-----0---0-----0-----0----|
D|--3-----3-----3---0h2---2-----2----|--0-----0-----0---0-----0-----0----|
A|--3-----3-----3---3-----3-----3----|--x-----x-----x---x-----x-----x----|
E|-(1)---(1)---(1)-(0)---(0)---(0)---|--3-----3-----3---3-----3-----3----|  

  now my love has gone cold, you're intertwining your soul with somebody else
e|-----------------------------------|-(3)---(3)---(3)-(3)---(3)---(3)---|
B|--1-----1-----1---1-----1-----1----|--0-----0-----1---0-----0-----0----|
G|--2-----2-----2---0-----0-----0----|--0-----0-----0---0-----0-----0----|
D|--3-----3-----3---0h2---2-----2----|--0-----0-----0---0-----0-----0----|
A|--3-----3-----3---3-----3-----3----|--x-----x-----x---x-----x-----x----|
E|-(1)---(1)---(1)-(0)---(0)---(0)---|--3-----3-----3---3-----3-----3----| 

  I'm looking through you while you're looking at your phone
  and then leaving with somebody else
e|-----------------------------------|-(3)---(3)-----(3)-----(3)--x---x--|
B|--1-----1-----1---1-----1-----1----|--0-----0-------0-------0---4---5--|
G|--2-----2-----2---0-----0-----0----|--0-----0-------0-------0---0---0--|
D|--3-----3-----3---0h2---2-----2----|--0-----0-------0-------0---0---0--|
A|--3-----3-----3---3-----3-----3----|--x-----x---x-x-x---x-x-x---x---x--|
E|-(1)---(1)---(1)-(0)---(0)---(0)---|--3-----3---3-3-3---3-3-3---4---5--|

  I don't want your body but I hate you think about you with somebody else
e|-----------------------------------|-(3)---(3)-----(3)-----(3)-----(3)-|
B|--6-----6-----6--------------------|--0-----0-------0-------0-------0--|
G|--x-----x-----x---5-----5-----5----|--0-----0-------0-------0-------0--|
D|--7-----7-----7---5-----5-----5----|--0-----0-------0-------0-------0--|
A|--5-----5-----5---3-----3-----3----|--x-----x-------x-------x-------x--|
E|-----------------------------------|--3-----3---3-3-3---3-3-3-----3-3--| 


  get someone you love? get someone you need?
  fuck that, get money, I can't give you my soul 'cause we're never alone
e|--------------x---------------x----|--------------x--(0)-(0)-(0)-(0)---|
B|--------------x---------------x----|--------------x---1---1---1---0----|
G|--2-----2-----x---2-----2-----x----|--4-----4-----x---0---0---0---0----|
D|--3-----3-----x---3-----3-----x----|--5-----5-----x---2---0---2---2----|
A|--3-----3-----x---3-----3-----x----|--5-----5-----x---3---2---0---2----|
E|--1-----1-----x---1-----1-----x----|--3-----3-----x--------------------|

  get someone you love? get someone you need?
  fuck that, get money, 'cause I can't give you my soul 'cause we're never alone
e|------------8-8---------------x----|--------------x--(0)-(0)-(0)-(0)---|
B|------------8-----------------x----|--------------x---1---1---1---0----|
G|--2-----2---------2-----2-----x----|--4-----4-----x---0---0---0---0----|
D|--3-----3---------3-----3-----x----|--5-----5-----x---2---0---2---2----|
A|--3-----3---------3-----3-----x----|--5-----5-----x---3---2---0---2----|
E|--1-----1---------1-----1-----x----|--3-----3-----x--------------------|

[add a bit more strumming than written down here, listen to the song]
  get someone you love? get someone you need?
  fuck that, get money, Oh baby, give me one more chance
e|-----------------------------------|-----------------(0)-(0)-(0)-(0)---|
B|--1-----1-----1---1-----1----------|------------------1---1---1---0----|
G|--2-----2-----2---2-----2----------|--4-----4-----4---0---0---0---0----|
D|--3-----3-----3---3-----3----------|--5-----5-----5---2---0---2---2----|
A|--3-----3-----3---3-----3-----3----|--5-----5-----5---3---2---0---2----|
E|--1-----1-----1---1-----1-----1-0--|--3-----3-----3--------------------|

[add a bit more strumming than written down here, listen to the song]
  get someone you love? get someone you need?
  fuck that, get money, and I took all of my
e|-----------------------------------|-----------------------------------|
B|--1-----1-----1---1-----1----------|-----------------------------------|
G|--2-----2-----2---2-----2----------|--4-----4-------4-------4-------4--|
D|--3-----3-----3---3-----3----------|--5-----5-5-----x-------x-------x--|
A|--3-----3-----3---3-----3-----3----|--5-----5-5-5/7-5-------5-------5--|
E|--1-----1-----1---1-----1-----1-0--|--3-----3-3-3/5-3-------3-------3--|

  things that make sound, oh that's how I know that you're around
e|-----------------------------------|-----------------------------------|
B|-----------------------------------|-----------------------------------|
G|-\2--------------/4----------------|------4-----------5-------4--------|
D|-\3--------------/5----------------|----5------------------------------|
A|-\3--------------/5----------------|-----------------------------------|
E|-\1--------------/3--------------4-|--4-----4---------5-------3--------|

  'cause I know the sound of your heard
e|-----------------------------------|--------------------------------x--|
B|-----------------------------------|--------------------------------x--|
G|--2--------------------------------|-/4-----------------------------x--|
D|-----------------------------------|--------------------------------x--|
A|-----------------------------------|--------------------------------x--|
E|--1--------------------------------|-/3-----------------------------x--|

  well I know when you're around 'cause I know the sound, I know the sound of your heart
e|-----------------------------------|-(3)---(3)-------------------------|
B|-----------------------------------|--0-----0-------1-------0-------0--|
G|--2---------------x-x-x-x---x-0----|--0-----0-------0-------0-------0--|
D|--x---------------x-x-x-x---x-2----|--0-----0-------2-------2-------2--|
A|--3---------------x-x-x-x---x-2----|--x-----x-------0-----x-2-----x-2--|
E|--1---------------x-x-x-x---x-0----|--3-----3---3-3-------x-0-----x-0--|

  well I know when you're around 'cause I know the sound, I know the sound of your heart
e|-----------------------------------|-(3)---(3)----(3)------------------|
B|--1-----1-----1---1-----1-----1-1--|--0-----0------0--1---1---0---0----|
G|--2-----2-----2---0-----0-----0-0--|--0-----0------0--0---0---0---0----|
D|--3-----3-----3---0h2---2-----2-2--|--0-----0------0--2---2---2---2----|
A|--3-----3-----3---3-----3-----3-3--|--x-----x------x--0---0---2---2----|
E|-(1)---(1)---(1)-(0)----0-----0-0--|--3-----3------3----------0---0----|

  I can't believe I forgot your name, oh baby won't you come again?
  oh baby, give me one more chance
e|-----------------------------------|-----------------------------------|
B|--1-----1-----1--------------------|----------------------1---1---0----|
G|--2-----2-----2---5-----5-----5----|--4-----4-----4---4---0---0---0----|
D|--3-----3-----3---5-----5-----5----|--x-----x-----x---x---0---2---2----|
A|--3-----3-----3---3-----3-----3----|--5-----5-----5---5---2---0---2----|
E|--1-----1-----1-0------------------|--3-----3-----3---3-----------0----|

  'cause I know the sound of your heart
e|-----------------------------------|-----------------------------------|
B|--1--------------------------------|-/3--------------------------------|
G|--2-----------2--------------------|-/4--------------------------------|
D|--3---------------3----------------|-/5--------------------------------|
A|--3-----3--------------------------|-/5--------------------------------|
E|-(1)--------1---1------------------|-----------------------------------|




************************************

| ()  ghost note
| /   slide up
| \   slide down
| h   hammer-on
| x   Mute note

************************************
Suggest correction
Give kudos to tab author, rate the tab!
1 2 3 4 5
comments
print report bad tab
guest
You may want to rate the tab now too:
select rating
Wanna post a correction for this tab? Suggest correction