Oops, an error
Loading. Please wait.

Recien Te Conozco Y Te Quiero Chords

version 2
version 2

Whole song

14 views 1 this week
no commentswrite comment
1 2 3 4 5
3 more votes to show rating
add to favorites
launch autoscroll
font size
0
reset
transpose
0
reset
simplify chords
display chords
guitar tuner
×
Best way to learn
"Recien Te Conozco Y Te Quiero"
Autoscroll
slow
fast
+/-
esc
set tempo
stop
Acordes del Intro:
----------------------
      E  B  G  D  A  E
Em7 : 0  0  0  0  2  0
C#* : 0  0  0  0  4  0
D#* : 0  0  0  1  0  0
B7  : 2  0  2  1  2  0


INTRO:
   Em           Em7          C#*          D#*          B7
e----------------------------------------------------------
B--------0------------0------------0------------0----------
G-----------0------0-----0------0-----0------0-----0-------
D-----2---------0------------------------1-----------------
A--2-------------------------4-----------------------------
E----------------------------------------------------------

     Em                             Am
Te quiero, recién te conozco y te quiero
                           D7
me gusta tu dulzura y te quiero
                G B7
regálame tu ternura.
Em                  Am
Sos tan dulce y diferente que te quiero
B7              Em   E7
  casi sin conocerte.

Coro:
       Am                D7
Despertando al amor sin miedo al error
     G               Em
me quema este primer beso
           Am                 B7
porque mil veces mirando el espejo
        Em                 E7
te imaginé acariciando tu cuerpo.
       Am            D7
Despertando al amor juego de dos
      G              Em
que invade mis sentimientos
         Am                 B7
mira mis ojos verás que no miento.


(Rep. Todo)
            Am                 B7    Em
...mira mis ojos verás que no miento.


INSTRUMENTAL: Am - B7 - Em (x2)

     Em                             Am
Te quiero, recién te conozco y te quiero
                           D7
me gusta tu dulzura y te quiero
                G B7
regálame tu ternura.
Em                  Am
Sos tan dulce y diferente que te quiero
B7              Em(+)
casi sin conocerte.

(+)
   Em           Em7          C#*          D#*          B7
e----------------------------------------------------------
B--------0------------0------------0------------0----------
G-----------0------0-----0------0-----0------0-----0-------
D-----2---------0------------------------1-----------------
A--2-------------------------4-----------------------------
E----------------------------------------------------------
Suggest correction
Give kudos to tab author, rate the tab!
1 2 3 4 5
comments
print report bad tab
guest
You may want to rate the tab now too:
select rating
Wanna post a correction for this tab? Suggest correction