Oops, an error
Loading. Please wait.

Dance With Me Tab

version 2
version 2

Whole song

Interactive

1,394 views 1 this week
no commentswrite comment
1 2 3 4 5
please rate
add to favorites
launch autoscroll
font size
0
reset
how to read this tab
guitar tuner
Tab Pro tools
  • play this tab
  • loop segment
  • change instrument
  • show fretboard
  • metronome
×
Best way to learn
"Dance With Me"
Autoscroll
slow
fast
+/-
esc
set tempo
stop
Contributor
Difficulty
novice
#-----------------------------------------------------------------------------#
Dance With Me by Orleans
Tabbed/Chorded by Joseph Visaggi

There are multiple guitars in this song. This TAB covers the main part
and a little of the background.


Intro/Verses:

e|-------------(5)----------|-----------------|------------------------|
B|--5-7-7----------(5)-(7)--|--5-7-8-7-5-3-2--|--2-3-3-----------------|
G|--6-7-7-------------------|--6-7-7-7-6-4-2--|--2-4-4-----------------|
D|--7-7-7------------(0)----|--7-7-9-7-7-5-2--|--2-4-4----(0)-(2)------|
A|---------------(0)--------|-----------------|------------------------|
E|--------------------------|-----------------|-------------------(3)--|

e|-----------------|-------------------|---------------|---------|
B|--2-3-5-3-2-3-2--|--(3)-(2)-(2)-(0)--|---------------|--5-7-7--|
G|--2-4-6-4-2-4-2--|---4---2---2---0---|----0-2-4-7-9--|--6-7-7--|
D|--2-5-7-5-2-4-2--|--(4)-(2)-(2)-(0)--|--4------------|--7-7-7--|
A|-----------------|-------------------|---------------|---------|
E|-----------------|-------------------|---------------|---------| 


Choruses:

Bm
Let it...
A
off the...
Bm
Starry...
E
love is...
G
I can...
A
where you...A#dim
want to...
Bm D A
go.


Ending Riff:

e|---------------------------------| 
B|---------------------------------|
G|--7-6-4--------------------------| 
D|--------7-5-4---------------(4)--|
A|--------------7-5-4-2-0-2-4--5---| 
E|---------------------------------| 
comments
We did not receive enough feedback on this tab! Please rate:
print report bad tab
1 2 3 4 5
I want to post or [tab]
guest
You may want to rate the tab now too:
select rating
Please do not post tabs as comments. Select "correction" instead!