Oops, an error
Loading. Please wait.

Lappuntamento Tab

version 1
version 1

Whole song

Interactive

27,372 views 51 this week
1 commentread comment
1 2 3 4 5
x 10
add to favorites
launch autoscroll
font size
0
reset
how to read this tab
guitar tuner
Autoscroll
slow
fast
+/-
esc
set tempo
stop
Help us to improve Ultimate-Guitar.com Take our survey!
×
Author
Versie Ties (Verstabs)

It's not as difficould as it seems. The only thing that you need to know is that after 
part, you have to raise the Verse, Chorus and Intro a half step up!

First I'll introduce you to the chords and tabs used in the play. Then I'll show you how 
use the chords and tabs in the play.

All the best!!

Chords   EADGBe  Chords   EADGBe
F        133211  F#       244322
G        355433  G#       466544
C        x35553  C#       x46664
C9       x35353  C#9      x46464
A        577655  Bb       688766
D7       x57555  D#7      x68666
D        x57775  D9       x57575
B        766577  E7       x79777

[Riff 1]
E|-3------5-------5----7-------7----5-------5---|
B|---5------5-------5----5-------5----5---------|
G|-----5------5------------5------------5-------|
D|-5------5-----5------5-----5------5-----5-----|
A|----------------------------------------------|
E|----------------------------------------------|

E|-3------5-------5----7-------7----5-------5---|
B|---5------5-------5----5-------5----5---------|
G|-----5------5------------5------------5-------|
D|-5------5-----5------5-----5------5-----5-----|
A|----------------------------------------------|
E|----------------------------------------------|

[Riff 2]
E|-5------7-------7----8-------8----7-------7---|
B|---6------6-------6----6-------6----6---------|
G|-----7------7------------7------------7-------|
D|-5------5-----5------5-----5------5-----5-----|
A|----------------------------------------------|
E|----------------------------------------------|

E|-5------7-------7----8-------8----7-------7---|
B|---6------6-------6----6-------6----6---------|
G|-----7------7------------7------------7-------|
D|-5------5-----5------5-----5------5-----5-----|
A|----------------------------------------------|
E|----------------------------------------------|

[Riff 3]
E|-3------5-------5----6-------6----|
B|---5------5-------5----5-------5--|
G|-----5------5------------5--------|
D|-5------5-----5------5-----5------|
A|----------------------------------|
E|----------------------------------|

The play:
[intro]
F G C A D7
e|-3-1---|
B|-----3-|
G|-------|
D|-------|
A|-------|
E|-------|

[Riff 1]

[Verse] change riff

[Riff 1]                                                  [Riff2]
Ho sbagliato tante volte ormai che lo so già
[Riff 2]                                                            [Riff1]
che oggi quasi certamente sto sbagliando su di te
[Riff 1]                                                                      [Riff 2]
ma una volta in più che cosa può cambiare nella vita mia...
[Riff 2]                                                           [Riff 1]
accettare questo strano appuntamento è stata una pazzia!
[Riff 1]                                                             [Riff 2]
Sono triste tra la gente che mi sta passando accanto
[Riff 2]                                                         [Riff 1]
ma la nostalgia di rivedere te è forte più del pianto:
[Riff 1]                                                          [Riff 2]
questo sole accende sul mio volto un segno di speranza.
[Riff 2]
Sto aspettando quando ad un tratto ti vedrò spuntare in
[Riff 3]
lontananza!

[Chorus]
F               G              C                  C9
Amore, fai presto, io non resisto...
F                G              C              A              D7
se tu non arrivi non esisto, non esisto, non esisto...

[Intro]
from this point raise the [INTRO], the [RIFFS] and the [CHORUS] a HALF step UP!
Like this:
[Intro 1]    [2nd]          [3th]
E|-3-1---|    E|-4-2---|    E|-5-3---|
B|-----3-|    B|-----4-|    B|-----5-|
G|-------|    G|-------|    G|-------| 
D|-------|    D|-------|    D|-------| 
A|-------|    A|-------|    A|-------| 
E|-------|    E|-------|    E|-------| 

[Riff 1]
[Verse 1]    [2nd]     [3th]
eBGD         eBGD      eBGD
3555         4666      5777
5555         x666      7777
7555         8666      9777
5555         6666      7777

[Riff 2]
[Verse 1]    [2nd]     [3th]
eBGD         eBGD      eBGD
5765         6876      7987
5767         6878      7989
5768         6879      798(10)

[Riff 3]
[Verse 1]    [2nd]     [3th]
eBGD         eBGD      eBGD
6555         7666      8777

[Chorus 1]             [2nd]                 [3th]
F G C C9               F# G# C# C#9            G A D D9
F G C A D7             F# G# C# bB D#7       G A D B E7

è cambiato il tempo e sta piovendo ma resto ad aspettare
non m'importa cosa il mondo può pensare io non me ne voglio andare.
io mi guardo dentro e mi domando ma non sento niente;
sono solo un resto di speranza perduta tra la gente.

Amore è già tardi e non resisto...
se tu non arrivi non esisto
non esisto, non esisto...

luci, macchine, vetrine, strade
tutto quanto si confonde nella mente
la mia ombra si è stancata di seguirmi
il giorno muore lentamente.
Non mi resta che tornare a casa mia
alla mia triste vita
questa vita che volevo dare a te
l' hai sbriciolata tra le dita.

Amore perdono ma non resisto...
adesso per sempre non esisto
non esisto, non esisto...

www.ornellavanoni.it
Suggest correction
comments
print report bad tab
1 comment total.
0 reply
accrsimpson 10 Mar 28, 2015 12:16 AM

awesome, thank you so much

guest
You may want to rate the tab now too:
select rating
Wanna post a correction for this tab? Suggest correction