Oops, an error
Loading. Please wait.

Das Madchen Aus Der Fremde Tab

version 1
version 1

Whole song

Interactive

238 views 1 this week
no commentswrite comment
1 2 3 4 5
please rate
add to favorites
launch autoscroll
font size
0
reset
how to read this tab
guitar tuner
Autoscroll
slow
fast
+/-
esc
set tempo
stop
Help us to improve Ultimate-Guitar.com Take our survey!
×
Contributor
Difficulty
crjh 2,220
intermediate
#----------------------------------PLEASE NOTE---------------------------------#
#This file is the author's own work and represents their interpretation of the #
#song. You may only use this file for private study, scholarship, or research. #
#------------------------------------------------------------------------------##

                           DAS MÄDCHEN AUS DER FREMDE
                              As recorded by Orplid
                     (From the 2002 Album NÄCHTLICHE JÜNGER)

Music by Orplid
Transcribed by Corey Hunter @ www.coreyhunter.com

Gtr I (Eb Ab Db Gb Bb Eb) - 'Clean steel'

 Intro
  Melancholic folk Q=100
 4/4
  Gtr I
  E E E E E E E E   E E E E E E E E   E E E E E E E E
|-----------------|-----------------|-----------------|
|-1-----0-----1---|---0-----1-------|-1-----0-----1---|
|---2-----2-----2-|-----2-----2-----|---0-----0-----0-|
|-----3-----3-----|-3-----3-----3---|-----2-----2-----|
|-3---------------|---------------0-|-----------------|
|-----------------|-----------------|-0---------------|


  E E E E E E E E    W          +W
|-----------------|-!0--------|-(0)----|
|---0-----1-------|-!1--------|-(1)----|
|-----0-----0-----|-!2--------|-(2)----|
|-2-----2-----2---|-!2--------|-(2)----|
|---------------0-|-!0--------|-(0)----|
|-----------------|-----------|--------|


   Verse
    E E E E E E E E   E E E E E E E E   E E E E E E E E   E E E E E E E E
||------------------|-----------------|-----------------|------------------|
||o-1-----0-----1---|---0-----1-------|-1-----0-----1---|---0-----1--------|
||----2-----2-----2-|-----2-----2-----|---0-----0-----0-|-----0-----0------|
||------3-----3-----|-3-----3-----3---|-----2-----2-----|-2-----2-----2----|
||o-----------------|---------------0-|-----------------|---------------0--|
||--1---------------|-----------------|-0---------------|------------------|


  E E E E E E E E   E E E E E E E E   E E E E E E E E   E E E E S S E E E
|-----------------|---------3-------|-----------------|--------------------|
|-0-----0-----0---|---0-------0-----|-1-----1-----1---|---1-----0h1--------|
|---0-----0-----0-|-----0-------0---|---2-----2-----2-|-----2-------2------|
|-----0-----0-----|-0-----0-------0-|-----2-----2-----|-2-----2-------2----|
|-----------------|-----------------|-0---------------|-----------------0--|
|-3---------------|-----------------|-----------------|--------------------|


  E E E E E E E E   E E E E E E E E   E E E E E E E E   E E E E E E E E
|-----------------|-----------------|-----------------|-----------------|
|-1-----0-----1---|---0-----1-------|-1-----0-----1---|---0-----1-------|
|---2-----2-----2-|-----2-----2-----|---0-----0-----0-|-----0-----0-----|
|-----3-----3-----|-3-----3-----3---|-----2-----2-----|-2-----2-----2---|
|-----------------|---------------0-|-----------------|---------------0-|
|-1---------------|-----------------|-0---------------|-----------------|


  E E E E E E E E   E E E E E E E E   E E E E E E E E   E E E E E E E E
|-----------------|---------3-------|-----------------|---------0-------|
|-0-----0-----0---|---0-------0-----|-1-----1-----1---|---1-------1-----|
|---0-----0-----0-|-----0-------0---|---2-----2-----2-|-----2-------2---|
|-----0-----0-----|-0-----0-------0-|-----2-----2-----|-2-----2-------0-|
|-----------------|-----------------|-0---------------|-----------------|
|-3---------------|-----------------|-----------------|-----------------|


 Chorus
  E E E E E E E E   E E E E E E E E   E E E E E E E E   E E E E E E E E
|-1-----0-----1---|---0-----1-------|-1-----0-----1---|---0-----1-------|
|---3-----3-----3-|-----3-----3-----|---1-----1-----1-|-----1-----1-----|
|-----2-----2-----|-2-----2-----2---|-----2-----2-----|-2-----2-----2---|
|-0---------------|---------------0-|-3---------------|---------------3-|
|-----------------|-----------------|-----------------|-----------------|
|-----------------|-----------------|-----------------|-----------------|


  E E E E E E E E   E E E E E E E E   E E E E E E E E   E E E E E E E E
|-----------------|-----------------|-----------------|---------3-------|
|-1-----1-----1---|---1-----1-------|-0-----0-----0---|---0-------0-----|
|---0-----0-----0-|-----0-----0-----|---0-----0-----0-|-----0-------0---|
|-----2-----2-----|-2-----2-----2---|-----0-----0-----|-0-----0-------0-|
|-3---------------|---------------0-|-----------------|-----------------|
|-----------------|-----------------|-3---------------|-----------------|


  E E E E E E E E   E E E E E E E E   E E E E E E E E   E E E E E E E E
|-1-----0-----1---|---0-----1-------|-1-----0-----1---|---0-----1-------|
|---3-----3-----3-|-----3-----3-----|---1-----1-----1-|-----1-----1-----|
|-----2-----2-----|-2-----2-----2---|-----2-----2-----|-2-----2-----2---|
|-0---------------|---------------0-|-3---------------|---------------3-|
|-----------------|-----------------|-----------------|-----------------|
|-----------------|-----------------|-----------------|-----------------|


  E E E E E E E E   E E E E E E E E   E E E E E E E E   E E E E E E E E  3x
|-----------------|-----------------|-----------------|------------------||
|-1-----1-----1---|---1-----1-------|-0-----0-----0---|---0-----0-------o||
|---0-----0-----0-|-----0-----0-----|---0-----0-----0-|-----0-----0------||
|-----2-----2-----|-2-----2-----2---|-----0-----0-----|-0-----0-----0----||
|-3---------------|---------------0-|-----------------|---------------0-o||
|-----------------|-----------------|-3---------------|------------------||


 Outro
                                      H.=H
  E E E E E E E E   E E E E E E E E   E E E E E E E E
|-----------------|-----------------|-----------------|
|-1-----0-----1---|---0-----1-------|-1-----0-----1---|
|---2-----2-----2-|-----2-----2-----|---0-----0-----0-|
|-----3-----3-----|-3-----3-----3---|-----2-----2-----|
|-3---------------|---------------0-|-----------------|
|-----------------|-----------------|-0---------------|


  E E E E E E E E    W          +W
|-----------------|-----------|--------*|
|---0-----1-------|-!1--------|-(1)----*|
|-----0-----0-----|-!2--------|-(2)----*|
|-2-----2-----2---|-!2--------|-(2)----*|
|---------------0-|-!0--------|-(0)----*|
|-----------------|-----------|--------*|


Duration Legend
---------------
W - whole; H - half; Q - quarter; E - 8th; S - 16th; T - 32nd; X - 64th; a - acciaccatura
+ - note tied to previous; . - note dotted; .. - note double dotted
Uncapitalized letters represent notes that are staccato (1/2 duration)
Irregular groupings are notated above the duration line
Duration letters will always appear directly above the note/fret number it represents the
duration for.  Duration letters with no fret number below them represent rests.  Multi-
bar rests are notated in the form Wxn, where n is the number of bars to rest for.  Low
melody durations appear below the staff

Tablature Legend
----------------
 h   - hammer-on
 p   - pull-off
 b   - bend
 pb  - pre-bend
 r   - bend release (if no number after the r, then release immediately)
 /\  - slide into or out of (from/to "nowhere")
 s   - legato slide
 S   - shift slide
  - natural harmonic
[n]  - artificial harmonic
n(n) - tapped harmonic
 ~   - vibrato
 tr  - trill
 T   - tap
 TP  - trem. picking
 PM  - palm muting
\n/  - tremolo bar dip; n = amount to dip
 \n  - tremolo bar down
 n/  - tremolo bar up
/n\  - tremolo bar inverted dip
 =   - hold bend; also acts as connecting device for hammers/pulls
 <>  - volume swell (louder/softer)
 x   - on rhythm slash represents muted slash
 o   - on rhythm slash represents single note slash

Misc Legend
-----------
 |  - bar
||  - double bar
||o - repeat start
o|| - repeat end
*|  - double bar (ending)
 :  - bar (freetime)
 $  - Segno
 &  - Coda
Tempo markers -  = BPM(8/16=s8/s16), where s8 = swing 8ths, s16 = swing 16ths
Suggest correction new What's this?
You can suggest a correction to this tab. Community and Mods will review your correction and vote to approve or reject it.
comments
We did not receive enough feedback on this tab! Please rate:
print report bad tab
1 2 3 4 5
guest
You may want to rate the tab now too:
select rating
Please do not post tabs as comments. Select "correction" instead!