Oops, an error
Loading. Please wait.

Untitled Intro To Nachtliche Junger Tab

version 1
version 1

Whole song

Interactive

109 views 1 this week
no commentswrite comment
1 2 3 4 5
please rate
add to favorites
launch autoscroll
font size
0
reset
how to read this tab
guitar tuner
Tab Pro tools
  • play this tab
  • loop segment
  • change instrument
  • show fretboard
  • metronome
Autoscroll
slow
fast
+/-
esc
set tempo
stop
Contributor
Difficulty
intermediate
              UNTITLED [INTRO FROM THE NACHTLICHE JUNGER ALBUM]
                              As recorded by Orplid
                     (From the 2002 Album NACHTLICHE JUNGER)

Transcribed by Core Hunter @ www.coreyhunter.com

          Em                 Dadd9/E              Dadd2/E
      0 x x 0 0 3          0 x 4 x 3 5          0 x 4 x 3 2


   Intro figure
    Q.=60
    Em                        Dadd9/E
   12/8
    Gtr I
    E E E E E E E E E E E E   E E E E E E E E E E E E
||--------3-----3-----3-----|-------5-----5-----5------|
||o-----0---0-----0-----0---|-----3---3-----3-----3----|
||----0-------0-----0-----0-|--------------------------|
||--------------------------|---4-------4-----4-----4--|
||o-------------------------|--------------------------|
||--0-----------------------|-0------------------------|


  Em                        Dadd2/E
  E E E E E E E E E E E E   E E E E E E E E E E E E
|-------3-----3-----3-----|-------2-----2-----2------||
|-----0---0-----0-----0---|-----3---3-----3-----3---o||
|---0-------0-----0-----0-|--------------------------||
|-------------------------|---4-------4-----4-----4--||
|-------------------------|-------------------------o||
|-0-----------------------|-0------------------------||


 Acoustic Melody (2 guitars) * Intro figure plays over top

  Gtr I
  Q.   Q  S S E  E E  E E E   Q.   +Q   S S E E E E E E
|---------------------------|---------------------------|
|-8----8--8-8-8-10-8\-7-5-8-|-7----(7)--7-7-7-8-7-5---7-|
|---------------------------|-----------------------7---|
|---------------------------|---------------------------|
|---------------------------|---------------------------|
|---------------------------|---------------------------|


  Q.   +Q   S S E E E E E E   Q.   +Q.   Q.   Q.
|-----------------2---------|----------------------|
|-5----(5)--5-5-5---5-3---3-|-----------------3----|
|-----------------------4---|-2----(2)---4---------|
|---------------------------|----------------------|
|---------------------------|----------------------|
|---------------------------|----------------------|


  Q.   +Q   S S E  E E  E E E   Q.   +Q   S S E E E E E  E
|-----------------------------|----------------------------|
|-8----(8)--8-8-8-10-8\-7-5-8-|-7----(7)--7-7-7-8-7-5----7-|
|-----------------------------|-----------------------7----|
|-----------------------------|----------------------------|
|-----------------------------|----------------------------|
|-----------------------------|----------------------------|
|
| Gtr II
| W                  Q    E E   Q.    Q   E   Q   E E E  E
|-----------------------------|----------------------------|
|-----------------------------|----------------------------|
|-----------------------------|----------------------------|
|-------------------------4-5-|-4-----4---4---4---4-4-5-/7-|
|-----------------------------|----------------------------|
|-----------------------------|----------------------------|


  Q.   +Q   E Q.    Q.       Q  E Q  E Q.   Q.
|--------------------------|----------------------|
|-5----(5)--5-7-----8------|-7--7-5--5-3----------|
|--------------------------|----------------4-----|
|--------------------------|----------------------|
|--------------------------|----------------------|
|--------------------------|----------------------|
|
| Q.    Q   E Q   E E  E E   Q  E Q  E Q.   Q.
|--------------------------|----------------------|
|--------------------------|----------------------|
|--------------------------|----------------------|
|-5-----5---5-5---5-5--7-5-|-7--7-5--5-4----0-----|
|--------------------------|----------------------|
|--------------------------|----------------------|


   Q.   +Q   E  Q.   +Q.     Q.   +Q   E   Q.   Q  E
|--------------/7----(7)---|--------------------7--8-|
|--------------------------|-------------/10---------|
|-/9----(9)--9-------------|-7----(7)--7-------------|
|--------------------------|-------------------------|
|--------------------------|-------------------------|
|--------------------------|-------------------------|
|
|  Q.   +Q   E  Q.   +Q.     Q.   +Q   E   Q.   Q  E
|--------------------------|-------------------------|
|--------------------------|-------------------------|
|--------------/4----(4)---|--------------/2----4--5-|
|--2----(2)--2-------------|-0----(0)--0-------------|
|--------------------------|-------------------------|
|--------------------------|-------------------------|


                             H.=H
  Q.   +Q   E  Q.   Q.     a Q  E E E E Q.   Q.     W
|-------------/7----7----|-7h8--8-7h8p7-5\---3----|----------------------*|
|------------------------|------------------------|----------------------*|
|-9----(9)--9------------|------------------------|----------------------*|
|------------------------|------------------------|----------------------*|
|------------------------|------------------------|----------------------*|
|------------------------|------------------------|----------------------*|
|
| Q.   +Q   E  Q.   Q.       Q  E E E E Q.   Q.     S S +Q   +Q.   H.
|------------------------|------------------------|----------------------*|
|------------------------|------------------------|----------------------*|
|-------------/4----4----|---2--2-0h2-0-----------|----------------------*|
|-2----(2)--2------------|--------------4----0----|---2-(2)--(2)---------*|
|------------------------|------------------------|----------------------*|
|------------------------|------------------------|-0--------------------*|


Duration Legend
---------------
W - whole; H - half; Q - quarter; E - 8th; S - 16th;
+ - note tied to previous; . - note dotted; .. - note double dotted
Duration letters will always appear directly above the note/fret number it represents 
duration for. Duration letters with no fret number below them
represent rests.

Tablature Legend
----------------
 h   - hammer-on
 p   - pull-off
 /\  - slide into or out of (from/to "nowhere")
 s   - legato slide
 S   - shift slide

Misc Legend
-----------
 |  - bar
||  - double bar
||o - repeat start
o|| - repeat end
*|  - double bar (ending)

Tempo markers -  = BPM(8/16=s8/s16), where s8 = swing 8ths, s16 = swing 16ths
comments
We did not receive enough feedback on this tab! Please rate:
print report bad tab
1 2 3 4 5
I want to post or [tab]
guest
You may want to rate the tab now too:
select rating
Please do not post tabs as comments. Select "correction" instead!