Oops, an error
Loading. Please wait.

Cuando Hablan Las Miradas Bass

104 views 1 this week
no commentswrite comment
1 2 3 4 5
3 more votes to show rating
add to favorites
launch autoscroll
font size
0
reset
guitar tuner
Autoscroll
slow
fast
+/-
esc
set tempo
stop
Intro (2 veces):

G ---------------------|
D ------5--------5-----|
A -3-6-----3--6--------|
E ---------------------|


G ------5--------5-----|
D -3-6-----3--6--------|
A ---------------------|
E ---------------------|


G ---------------------|
D ---3---5---3--5---5--|
A -5---5---5------5----|
E ---------------------|


G -----------|
D ------5----|
A -3-6-------|
E -----------|

Cancion

Primera estrofa:

G -----------|
D ------5----| (7 veces)
A -3-6-------|
E -----------|


G ------5---|
D -3-6------| (2 veces)
A ----------|
E ----------|

G ----------------------------------|
D ---3---5---5---------5------6--5--|
A -5---5---5-----3--6------3--------|
E ----------------------------------|

G --------------------------------|
D ----------3---5---3-5--3--------|
A ---3-6--5---5---5--------6-5-3--|
E -4------------------------------|


Segunda Estrofa:

G -----------|
D ------5----| (7 veces)
A -3-6-------|
E -----------|


G ------5---|
D -3-6------| (2 veces)
A ----------|
E ----------|

G ----------------------------------|
D ---3---5---5---------5------6--5--|
A -5---5---5-----3--6------3--------|
E ----------------------------------|

G ----------------------------------|
D --------6----6---3---5-3----------|
A ---3-6----6----5---5------6-5-3---|
E -4--------------------------------|


Tercera estrofa:


G -----------|
D ------5----| (7 veces)
A -3-6-------|
E -----------|


G ------5---|
D -3-6------| (2 veces)
A ----------|
E ----------|

G ----------------------------------|
D ---3---5---5---------5------6--5--|
A -5---5---5-----3--6------3--------|
E ----------------------------------|

G -----------------------------|
D ----------3---5---3-5---5----|
A ---3-6--5---5---5-----5---3--|
E -4---------------------------|

Coro:

G ---------------------|
D ------5--------5-----| (2 veces)
A -3-6-----3--6--------|
E ---------------------|

G -----------------------|
D -----------------------|
A ---3-6----2---5---2-5--|
E -4------3-------3------|

G ---------------------|
D ------5--------5-----| (2 veces)
A -3-6-----3--6--------|
E ---------------------|

G --------------------|
D ---3---5---------5--|
A -5---5---5--5-5-----|
E --------------------|

G ---------------------|
D ------5--------5-----| (2 veces)
A -3-6-----3--6--------|
E ---------------------|

G -------12-------------|
D ---3------12----12----|
A -5---5-------10----3--|
E ----------------------|


Primer solo de metales.

Vuelta I.

A)Se toca 2 veces:

G ---------------------|
D ------5--------5-----| (2 veces)
A -3-6-----3--6--------|
E ---------------------|

G --------------------|
D ---3---5---------5--|
A -5---5---5--5-5-----|
E --------------------|

B) Idem:

G ---------------------|
D ------5--------5-----| (2 veces)
A -3-6-----3--6--------|
E ---------------------|

G -----------------------|
D -----------------------|
A ---3-6----2---5---2-5--|
E -4------3-------3------|

Vuelta II (2 veces):

G ---------------------|
D ------5--------5-----| (2 veces)
A -3-6-----3--6--------|
E ---------------------|

G --------------------|
D ---3---5---------5--|
A -5---5---5--5-5-----|
E --------------------|

Coro (Se toca una vez más)

Segundo solo de metales (se toca igual que el primero)

Vuelta I y vuelta II se tocan igual

Coro (2 veces)

Final:

G --------|
D --------|
A ---2--3-|
E -3------|

Esta es la versión final de la canción. Si la oyen muy bien,
tiene unos ligeros cambios, pero se las dejo a su criterio.
Recuerden que deben oir la canción todas las veces que les
sean necesarias para que lleven el ritmo. Espero que la disfruten.
¡¡¡HASTA LA PRÓXIMA!!!
Suggest correction
Give kudos to tab author, rate the tab!
1 2 3 4 5
comments
print report bad tab
guest
Wanna post a correction for this tab? Suggest correction