Oops, an error
Loading. Please wait.

Invierno En Primavera Tab

77 views 1 this week
no commentswrite comment
1 2 3 4 5
2 more votes to show rating
add to favorites
launch autoscroll
font size
0
reset
how to read this tab
guitar tuner
×
Best way to learn
"Invierno En Primavera"
Autoscroll
slow
fast
+/-
esc
set tempo
stop
Nada más pongo en tab de la INTRO, lo demás es acompañamiento
sobre los acordes y el solo... pues es un SOLO!!!!

INTRO:
                                  D
     E   E  E   E  E  E  E  E     Q.     Q    E  Q
E||------0------0--0--0--0--0--|---------5------------|
B||-----10-----10--9--9--8--8--|--7-------------------|
G||----------------------------|--7------7------------|
D||----------------------------|----------------------|
A||----------------------------|----------------------|
E||----------------------------|----------------------|


                             A
  E  E  E  E  E  E  E  E     Q.     Q    E  Q
-----5-----5--7--5--4-----|---------5------------|
-----7-----------------7--|--5------5------------|
--------------------------|----------------------|
--------------------------|----------------------|
--------------------------|----------------------|
--------------------------|----------------------|


                             Bm
  Q    E  E  E  E  E  S S    Q.     Q    E  Q
-------5--4--5--4--5--6-6-|--7-------------------|
--------------------------|---------7------------|
--------------------------|----------------------|
--------------------------|----------------------|
--------------------------|----------------------|
--------------------------|----------------------|


  E7                                     A
  |--3--|  |--3--|  |--3--|  |--3--|
  E  E  E  E  E  E  E  E  E  E  E  E     Q    Q    H
--7--5--4--5--4-----4-----------------|---------------------|
-----------------7-----7--5--7--5-----|---------------------|
-----------------------------------7--|--6------------------|
--------------------------------------|---------------------|
--------------------------------------|---------------------|
--------------------------------------|---------------------|


                               D
  E   E  E   E  E  E  E  E     Q.     Q    E  Q
------0------0--0--0--0--0--|---------5------------|
-----10-----10--9--9--8--8--|--7-------------------|
----------------------------|--7------7------------|
----------------------------|----------------------|
----------------------------|----------------------|
----------------------------|----------------------|


                             A
  E  E  E  E  E  E  E  E     Q.     Q    E  Q
-----5-----5--7--5--4-----|---------5------------|
-----7-----------------7--|--5------5------------|
--------------------------|----------------------|
--------------------------|----------------------|
--------------------------|----------------------|
--------------------------|----------------------|


                             Bm
                                               |-3-|
  Q    E  E  E  E  E  S S    Q.     Q    E  E  S S S
-------5--4--5--4--5--6-6-|--7-----------------7-7-7-|
--------------------------|---------7----------------|
--------------------------|--------------------------|
--------------------------|--------------------------|
--------------------------|--------------------------|
--------------------------|--------------------------|


  E7
  |--3-| |-3-| |-3-| |-3-| |-3-| |-3-| |-3-| |-3-|
  S  S S S S S S S S S S S S S S S S S S S S S S S
--7--7-7-5-5-4-------------------------------------|
---------------7-7-7-5-5-5-------------------------|
---------------------------7-7-7-6-6-6-4-4-4-------|
---------------------------------------------6-6-6-|
---------------------------------------------------|
---------------------------------------------------|


  A
  Q.     S S E  E  E  E     Q    Q    H
----------------------4--|--5----5-------------||
----------------5--7-----|-------5-------------||
---------4-6-7-----------|-------6-------------||
--7----------------------|---------------------||
-------------------------|---------------------||
-------------------------|---------------------||


          A            E7
Qué te pasa? Estás llorando
          D             D  E7        A
No puede ser si hasta ayer   tú te reías
     E7                   A
Y decías que feliz te sentías
        E7      D          A
Del placer de amar y ser amada
                           E7
¿Qué te pasa? Dime quién te hizo mal
       D          D  E7         A
Dime quién marchitó     tu alegría
        E7                         A
Como invierno en primavera has quedado
       E7            D  E7         A
Ya lo ves, puede llover   sobre mojado

                          E7
Verte llorando, no lo puedo creer
          D      D  E7         A
¿Dónde está esa luz   de tu mirada?
                         E7
¿Qué te pasa? ¿Qué te pasó con él?
          D       D  E7        A
¿Dónde está ese amor   improvisado?
          E7                       A
No podía ser hoy en ascuas has quedado
       E7               D   E7           A
Y mi amor igual que el tuyo   fue maltratado

A               E7
Si te fue mal y dañó
                   A
Lo que te pasó con él
                  E7
Cambiaste mi corazón
   D       E7     A
Remando pa'la riviera
                E7
Si te fue mal y dañó
                   A
Lo que te pasó con él
                  E7
Cambiaste mi corazón
   D       E7     A
Remando pa'la riviera
                         Bm
Cuando quieras te puedes ir
         E7                  A
Cuando quieras tu puedes regresar
F#7              Bm
No sientas pena nunca
      E7                   A
Ven a mí yo te sabré perdonar
A               E7
Si te fue mal y dañó
                   A
Lo que te pasó con él
                  E7
Cambiaste mi corazón
   D       E7     A
Remando pa'la riviera
                           Bm
Y no me digas que pasó con él
         E7                      A
Y no me digas que pasó en otro tiempo
F#7               Bm
Pero al final de cuentas
   E7                A
Salimos perdiendo los dos
A               E7
Si te fue mal y dañó
                   A
Lo que te pasó con él
                  E7
Cambiaste mi corazón
   D       E7     A
Remando pa'la riviera


FINAL:
A               E7
Si te fue mal y dañó
                   A
Lo que te pasó con él
                  E7
Cambiaste mi corazón
   D       E7     A    D  A  E7  A
Remando pa'la riviera
Suggest correction
Give kudos to tab author, rate the tab!
1 2 3 4 5
comments
print report bad tab
guest
You may want to rate the tab now too:
select rating
Wanna post a correction for this tab? Suggest correction