Oops, an error
Loading. Please wait.

Bright Idea Bass Tab

811 views 3 this week
no commentswrite comment
1 2 3 4 5
please rate
add to favorites
launch autoscroll
font size
0
reset
guitar tuner
Autoscroll
slow
fast
+/-
esc
set tempo
stop
Help us to improve Ultimate-Guitar.com Take our survey!
×
Orson - Bright Idea

(come in at 0:36)
Verse
|------------------------------------------|
|-------------------------------------4--4-|
|-2-4--4--4----2-4--4----2----------2------|
|--------------------------2--2--2---------|

|------------------------------------------|
|-------------------------------------4--4-|
|-2-4--4--4----2-4--4----2----------2------|
|--------------------------2--2--2---------|

Chorus
|------------------------------------------|
|------------------------------------------|
|-2-2---2-2---------------4-4-4-4--4-6-7-9-|
|-------------2-2---2-2--------------------|

|------------------------------------------|
|------------------------------------------|
|-2-2---2-2---------------4-4-4-4--7-7-7-7-|
|-------------2-2---2-2--------------------|

This last bit of the verse changes abit towards the end but I just realized it after I 
out the hole tab so I cldnt b bothered but im sure u can work it out.

Verse
|------------------------------------------|
|-------------------------------------4--4-|
|-2-4--4--4----2-4--4----2----------2------|
|--------------------------2--2--2---------|

|------------------------------------------|
|-------------------------------------4--4-|
|-2-4--4--4----2-4--4----2----------2------|
|--------------------------2--2--2---------|

|------------------------------------------|
|-------------------------------------4--4-|
|-2-4--4--4----2-4--4----2----------2------|
|--------------------------2--2--2---------|

|------------------------------------------|
|-------------------------------------4--4-|
|-2-4--4--4----2-4--4----2----------2------|
|--------------------------2--2--2---------|

|------------------------------------------|
|-------------------------------------4--4-|
|-2-4--4--4----2-4--4----2----------2------|
|--------------------------2--2--2---------|

Chorus
|------------------------------------------|
|------------------------------------------|
|-2-2---2-2---------------4-4-4-4--4-6-7-9-|
|-------------2-2---2-2--------------------|

|------------------------------------------|
|------------------------------------------|
|-2-2---2-2---------------4-4-4-4--4-6-7-9-|
|-------------2-2---2-2--------------------|

|----------------------------------------|
|----------------------------------------|
|-2-2-2-2---------------4-4-4-4--4-6-7-9-|
|-------------2-2-2-2--------------------|

|----------------------------------------|
|----------------------------------------|
|-2-2-2-2---------------4-4-4-4--7-7-7-7-|
|-------------2-2-2-2--------------------|

Bridge
|----------------------------------|
|-6-6-6-6-6-6-6-6------------------|
|------------------6-4-4-4-4-4-4-4-|
|----------------------------------|

|----------------------------------|
|---6-6-6-6-6-6-6------------------|
|-6----------------6-4-4-4-4-4-4-4-|
|----------------------------------|

|----------------------------------|
|---6-6-6-6-6-6-6------------------|
|-6----------------6-4-4-4-4-4-4-4-|
|----------------------------------|

|----------------------------------|
|-7-7-7-7-7-7-7-7------------------|
|------------------6-6-6-6-6-6-6-6-|
|----------------------------------|

This last Chorus changes abit towards the end but I just realized it after I wrote out 
hole tab so I cldnt b bothered but im sure u can work it out.

Chorus
|----------------------------------------|
|----------------------------------------|
|-----------------------4-4-4-4--4-6-7-9-|
|----------------------------------------|

|----------------------------------------|
|----------------------------------------|
|-2-2-2-2---------------4-4-4-4--4-6-7-9-|
|-------------2-2-2-2--------------------|

|----------------------------------------|
|----------------------------------------|
|-2-2-2-2---------------4-4-4-4--4-6-7-9-|
|-------------2-2-2-2--------------------|

|----------------------------------------|
|----------------------------------------|
|-2-2-2-2---------------4-4-4-4--4-6-7-9-|
|-------------2-2-2-2--------------------|

|----------------------------------------|
|----------------------------------------|
|-2-2-2-2---------------4-4-4-4--4-6-7-9-|
|-------------2-2-2-2--------------------|

|----------------------------------------|
|----------------------------------------|
|-2-2-2-2---------------4-4-4-4--4-6-7-9-|
|-------------2-2-2-2--------------------|

|------------|
|------------|
|-0h2--s--12-|
|------------|

|------------|
|------------|
|-0h2--s--12-|
|------------|

|-------------------------18-----|
|-----------------18--21------21-|
|-0h2--s--12---------------------|
|--------------------------------|

|-------------------------18-----|
|-----------------18--21------21-|
|-0h2--s--12---------------------|
|--------------------------------|

Hope you like it.

>B.ENGLAND<
Suggest correction
What's this?
You can suggest a correction to this tab. Community and Mods will review your correction and vote to approve or reject it.
comments
We did not receive enough feedback on this tab! Please rate:
print report bad tab
1 2 3 4 5
guest
You may want to rate the tab now too:
select rating
Please do not post tabs as comments. Select "correction" instead!