Oops, an error
Loading. Please wait.

Happiness Tab

version 2
version 2

Whole song

839 views 1 this week
5 commentsread comments
1 2 3 4 5
x 4
add to favorites
launch autoscroll
font size
0
reset
how to read this tab
guitar tuner
Autoscroll
slow
fast
+/-
esc
set tempo
stop
Help us to improve Ultimate-Guitar.com Take our survey!
×
Author
Difficulty
novice
This Is A AC/DC Kinda Riff Through The Verse
Intro+Verse

e-------------|
b-------------|
g--4466-42-22-|
d--4466-42-22-|
a--2244-22-00-|
e-------------|


Pre Chorus

e|---------------------------------------------------------------------------|
B|---------------------------------------------------------------------------|
G|---------------------------------------------------------------------------|
D|---------------------4xx444-44-x2times-------------------------------------|
A|-4xx444-44-x2times---2xx222-22---------------------------------------------|
E|-2xx222-22-----------------------------------------------------------------|


Chorus

e|--------------------------------------------------------------------------|
B|--------------------------------------------------------------------------|
G|-4-4-4-4-2-2-2-2----------------------------------------------------------|
D|-4-4-4-4-2-2-2-2----------------------------------------------------------|
A|-2-2-2-2-0-0-0-0----------------------------------------------------------|
E|--------------------------------------------------------------------------|
Suggest correction
comments
print report bad tab
5 comments total. Showing first comments.
0 reply
david3584 10 Aug 05, 2006 06:34 AM

dreadfull!!!

0 reply
oxocubeingravy 342 Aug 07, 2006 07:11 AM

someone please tab th solo!!
u hav the right idea bt alot more work is needed

0 reply
Ro734 156 Jul 05, 2008 11:26 AM

arrgh this solo is ****in hard help

guest
You may want to rate the tab now too:
select rating
Wanna post a correction for this tab? Suggest correction