Oops, an error
Loading. Please wait.

Happiness Tab

version 3
version 3

Whole song

1,203 views 1 this week
1 commentread comment
1 2 3 4 5
x 3
add to favorites
launch autoscroll
font size
0
reset
how to read this tab
guitar tuner
Autoscroll
slow
fast
+/-
esc
set tempo
stop
Help us to improve Ultimate-Guitar.com Take our survey!
×
Difficulty
intermediate
----------------------------------------------------------------------------
                             Orson - Band Name
----------------------------------------------------------------------------
Tabbed by: Liam Annis
Email: liam@teamrush.co.uk

Tuning: E A D G B e (Standard)

INTRO :
x4
1st Guitar
e|--------------------------------------------------------------------------|
B|--------------------------------------------------------------------------|
G|--------9-9------------2-2------------------------------------------------|
D|--9-9---9-9----9-9-----2-2------------------------------------------------|
A|--9-9---7-7----9-9--------------------------------------------------------|
E|--7-7---7-7----7-7--------------------------------------------------------|

After 4 the guitar 1st guitar carrieso n playign this rythm but the second guitar and 
join in.

VERSE :
x4
1st Guitar
e|--------------------------------------------------------------------------|
B|--------------------------------------------------------------------------|
G|--------9-9------------2-2------------------------------------------------|
D|--9-9---9-9----9-9-----2-2------------------------------------------------|
A|--9-9---7-7----9-9--------------------------------------------------------|
E|--7-7---7-7----7-7--------------------------------------------------------|

2nd guitar (something high pitched like this every so often)
e|---------------|
B|---------------|
G|--14-----------|
D|--14-----------|
A|--12-----------|
E|---------------|

Or you can play it like this

e|---------------|
B|--10-----------|
G|---9-----------|
D|---7-----------|
A|---------------|
E|---------------|


BRIDGE :
x1
1st Guitar
Strumming pattern
e|--------------------------------------------------------------------|
B|--------------------------------------------------------------------|
G|--------------------4-----------------------------------------------|
D|--4-----------------4-----------------------------------------------|
A|--4-----------------2-----------------------------------------------|
E|--2-----------------------------------------------------------------|


CHORUS :
x4
1st Guitar
Strumming pattern
e|--------------------------------------------------------------------------|
B|---------------2----------------------------------------------------------|
G|--1------------2----------------------------------------------------------|
D|--2------------2----------------------------------------------------------|
A|--2-----------------------------------------------------------------------|
E|--------------------------------------------------------------------------|


VERSE :
x6 (Not 4 times this time.. 6)
1st Guitar
e|--------------------------------------------------------------------------|
B|--------------------------------------------------------------------------|
G|--------9-9------------2-2------------------------------------------------|
D|--9-9---9-9----9-9-----2-2------------------------------------------------|
A|--9-9---7-7----9-9--------------------------------------------------------|
E|--7-7---7-7----7-7--------------------------------------------------------|

2nd guitar (something high pitched like this every so often)
e|---------------|
B|---------------|
G|--14-----------|
D|--14-----------|
A|--12-----------|
E|---------------|

Or you can play it like this

e|---------------|
B|--10-----------|
G|---9-----------|
D|---7-----------|
A|---------------|
E|---------------|


BRIDGE :
x1
1st Guitar
Strumming pattern
e|--------------------------------------------------------------------|
B|--------------------------------------------------------------------|
G|--------------------4-----------------------------------------------|
D|--4-----------------4-----------------------------------------------|
A|--4-----------------2-----------------------------------------------|
E|--2-----------------------------------------------------------------|


BRIDGE 2 :
x2
Both Guitars
Strumming pattern
e|-x------------------------------------------------------------------------|
B|-x------5-5---------------------------------------------------------------|
G|-x--4---4-4---4-4------2-2------------------------------------------------|
D|-x--4---2-2---4-4------2-2------------------------------------------------|
A|-x--2---------2-2---------------------------------------------------------|
E|-x------------------------------------------------------------------------|


Slight Pause while guitar 2 plays beginning of solo


SOLO :
x (can't remember, you'll figure it out)
1st guitar (Play the Chorus chords)
2nd guitar (Play the solo)
e|--------------------------------------------------------------------------|
B|---------------2----------------------------------------------------------|
G|--1------------2----------------------------------------------------------|
D|--2------------2----------------------------------------------------------|
A|--2-----------------------------------------------------------------------|
E|--------------------------------------------------------------------------|


CHORUS :
x4
1st Guitar
Strumming pattern
e|--------------------------------------------------------------------------|
B|---------------2----------------------------------------------------------|
G|--1------------2----------------------------------------------------------|
D|--2------------2----------------------------------------------------------|
A|--2-----------------------------------------------------------------------|
E|--------------------------------------------------------------------------|


BRIDGE 2 :
x2
Both Guitars
Strumming pattern
e|-x------------------------------------------------------------------------|
B|-x------5-5---------------------------------------------------------------|
G|-x--4---4-4---4-4------2-2------------------------------------------------|
D|-x--4---2-2---4-4------2-2------------------------------------------------|
A|-x--2---------2-2---------------------------------------------------------|
E|-x------------------------------------------------------------------------|

It's no perfect but it's good enouh to play :)

| /  slide up
| \  slide down
| h  hammer-on
| p  pull-off
| ~  vibrato
| +  harmonic
| x  Mute note
============================================================================
Suggest correction
Give kudos to tab author, rate the tab!
1 2 3 4 5
comments
print report bad tab
1 comment total.
0 reply
Ro734 156 May 17, 2008 07:04 AM

There's an easier way...
Check out version 5

guest
You may want to rate the tab now too:
select rating
Wanna post a correction for this tab? Suggest correction