Oops, an error
Loading. Please wait.

Happiness Tab

version 4
version 4

Whole song

679 views 1 this week
1 commentread comment
1 2 3 4 5
please rate
add to favorites
launch autoscroll
font size
0
reset
how to read this tab
guitar tuner
Autoscroll
slow
fast
+/-
esc
set tempo
stop
Help us to improve Ultimate-Guitar.com Take our survey!
×
Difficulty
novice
This is one of the best songs ever! Sorry about the solo-still workin on that...

Key:

/=slide up from one note to the next
\=slide down from one note to the next




Verse 1

Lyrics:Do I really need a reason?

Gtr 1: e---------------------------------------------|
       B-------------------------4-4/5-5---4-4---2-2-|
       G---------------------------------------------|
       D---------------------------------------------|
       A---------------------------------------------|  
       E---------------------------------------------|
       
       Is it really such a big deal?
 
Gtr 1: e---------------------------------------------|
       B-------------------------4-4/5-5---4-4---2-2-|
       G---------------------------------------------|
       D---------------------------------------------|
       A---------------------------------------------|  
       E---------------------------------------------|

       It just seems like the right situation,

Gtr 1: e---------------------------------------------|
       B-------------------------4-4/5-5---4-4---2-2-|
       G---------------------------------------------|
       D---------------------------------------------|
       A---------------------------------------------|  
       E---------------------------------------------|

       To say how I really feel,


Gtr 1: e---------------------------------------------|
       B-------------------------4-4/5-5---4-4---2-2-|
       G---------------------------------------------|
       D---------------------------------------------|
       A---------------------------------------------|  
       E---------------------------------------------|

Verse 2:
       
       I love the way that ya look at me,

Gtr 1: e---------------------------------------------|
       B-------------------------4-4/5-5---4-4---2-2-|
       G---------------------------------------------|
       D---------------------------------------------|
       A---------------------------------------------|  
       E---------------------------------------------|

Gtr 2: e-0-0-0-0-0-0-0-0-0-0-0-0-0-0-0-0-0-0-0-0-0-0-|
       B-0-0-0-0-0-0-0-0-0-0-0-0-0-0-0-0-0-0-0-0-0-0-|
       G-1-1-1-1-1-1-1-1-1-1-1-1-1-1-1-1-1-1-1-1-1-1-|
       D-2-2-2-2-2-2-2-2-2-2-2-2-2-2-2-2-2-2-2-2-2-2-|
       A-2-2-2-2-2-2-2-2-2-2-2-2-2-2-2-2-2-2-2-2-2-2-|
       E-0-0-0-0-0-0-0-0-0-0-0-0-0-0-0-0-0-0-0-0-0-0-|

       So I can't stop lookin' at you,            ooh,

Gtr 1: e---------------------------------------------|
       B-------------------------4-4/5-5---4-4---2-2-|
       G---------------------------------------------|
       D---------------------------------------------|
       A---------------------------------------------|  
       E---------------------------------------------|

Gtr 2: e-0-0-0-0-0-0-0-0-0-0-0-0-0-0-0-0-0-0-0-0-0-0-|
       B-0-0-0-0-0-0-0-0-0-0-0-0-0-0-0-0-0-0-0-0-0-0-|
       G-1-1-1-1-1-1-1-1-1-1-1-1-1-1-1-1-1-1-1-1-1-1-|
       D-2-2-2-2-2-2-2-2-2-2-2-2-2-2-2-2-2-2-2-2-2-2-|
       A-2-2-2-2-2-2-2-2-2-2-2-2-2-2-2-2-2-2-2-2-2-2-|
       E-0-0-0-0-0-0-0-0-0-0-0-0-0-0-0-0-0-0-0-0-0-0-|

       And the sweetest thing that ya do for me baby, 

Gtr 1: e---------------------------------------------|
       B-------------------------4-4/5-5---4-4---2-2-|
       G---------------------------------------------|
       D---------------------------------------------|
       A---------------------------------------------|  
       E---------------------------------------------|

Gtr 2: e-0-0-0-0-0-0-0-0-0-0-0-0-0-0-0-0-0-0-0-0-0-0-|
       B-0-0-0-0-0-0-0-0-0-0-0-0-0-0-0-0-0-0-0-0-0-0-|
       G-1-1-1-1-1-1-1-1-1-1-1-1-1-1-1-1-1-1-1-1-1-1-|
       D-2-2-2-2-2-2-2-2-2-2-2-2-2-2-2-2-2-2-2-2-2-2-|
       A-2-2-2-2-2-2-2-2-2-2-2-2-2-2-2-2-2-2-2-2-2-2-|
       E-0-0-0-0-0-0-0-0-0-0-0-0-0-0-0-0-0-0-0-0-0-0-|

       Is all the little things that you do,

Gtr 1: e---------------------------------------------|
       B-------------------------4-4/5-5---4-4---2-2-|
       G---------------------------------------------|
       D---------------------------------------------|
       A---------------------------------------------|  
       E---------------------------------------------|

Gtr 2: e-0-0-0-0-0-0-0-0-0-0-0-0-0-0-0-0-0-0-0-0-0-0-|
       B-0-0-0-0-0-0-0-0-0-0-0-0-0-0-0-0-0-0-0-0-0-0-|
       G-1-1-1-1-1-1-1-1-1-1-1-1-1-1-1-1-1-1-1-1-1-1-|
       D-2-2-2-2-2-2-2-2-2-2-2-2-2-2-2-2-2-2-2-2-2-2-|
       A-2-2-2-2-2-2-2-2-2-2-2-2-2-2-2-2-2-2-2-2-2-2-|
       E-0-0-0-0-0-0-0-0-0-0-0-0-0-0-0-0-0-0-0-0-0-0-|

Pre-chorus 1: (no gtr)

       When the world don't feel like turnin',
       And the sun just wants to hide,
       All the stars come out to remind me,
       Of the universe by my side because,

Chorus:
  
       All that happens,

Gtrs 1+2: e-0-0-0-0-0-0-0-0-0-0-0-0-0-0-0-0-0-0-0-0-0-0-|
          B-0-0-0-0-0-0-0-0-0-0-0-0-0-0-0-0-0-0-0-0-0-0-|
          G-1-1-1-1-1-1-1-1-1-1-1-1-1-1-1-1-1-1-1-1-1-1-|
          D-2-2-2-2-2-2-2-2-2-2-2-2-2-2-2-2-2-2-2-2-2-2-|
          A-2-2-2-2-2-2-2-2-2-2-2-2-2-2-2-2-2-2-2-2-2-2-|
          E-0-0-0-0-0-0-0-0-0-0-0-0-0-0-0-0-0-0-0-0-0-0-|
   
       Is happiness,

Gtrs 1+2: e-0-0-0-0-0-0-0-0-0-0-0-0-0-0-0-0-0-0-0-0-0-0-|
          B-0-0-0-0-0-0-0-0-0-0-0-0-0-0-0-0-0-0-0-0-0-0-|
          G-1-1-1-1-1-1-1-1-1-1-1-1-1-1-1-1-1-1-1-1-1-1-|
          D-2-2-2-2-2-2-2-2-2-2-2-2-2-2-2-2-2-2-2-2-2-2-|
          A-2-2-2-2-2-2-2-2-2-2-2-2-2-2-2-2-2-2-2-2-2-2-|
          E-0-0-0-0-0-0-0-0-0-0-0-0-0-0-0-0-0-0-0-0-0-0-|

       Happiness,

Gtrs 1+2: e-0-0-0-0-0-0-0-0-0-0-0-0-0-0-0-0-0-0-0-0-0-0-|
          B-0-0-0-0-0-0-0-0-0-0-0-0-0-0-0-0-0-0-0-0-0-0-|
          G-1-1-1-1-1-1-1-1-1-1-1-1-1-1-1-1-1-1-1-1-1-1-|
          D-2-2-2-2-2-2-2-2-2-2-2-2-2-2-2-2-2-2-2-2-2-2-|
          A-2-2-2-2-2-2-2-2-2-2-2-2-2-2-2-2-2-2-2-2-2-2-|
          E-0-0-0-0-0-0-0-0-0-0-0-0-0-0-0-0-0-0-0-0-0-0-|

       When I'm with you,

       All that happens,

Gtrs 1+2: e-0-0-0-0-0-0-0-0-0-0-0-0-0-0-0-0-0-0-0-0-0-0-|
          B-0-0-0-0-0-0-0-0-0-0-0-0-0-0-0-0-0-0-0-0-0-0-|
          G-1-1-1-1-1-1-1-1-1-1-1-1-1-1-1-1-1-1-1-1-1-1-|
          D-2-2-2-2-2-2-2-2-2-2-2-2-2-2-2-2-2-2-2-2-2-2-|
          A-2-2-2-2-2-2-2-2-2-2-2-2-2-2-2-2-2-2-2-2-2-2-|
          E-0-0-0-0-0-0-0-0-0-0-0-0-0-0-0-0-0-0-0-0-0-0-|
   
       Is happiness,

Gtrs 1+2: e-0-0-0-0-0-0-0-0-0-0-0-0-0-0-0-0-0-0-0-0-0-0-|
          B-0-0-0-0-0-0-0-0-0-0-0-0-0-0-0-0-0-0-0-0-0-0-|
          G-1-1-1-1-1-1-1-1-1-1-1-1-1-1-1-1-1-1-1-1-1-1-|
          D-2-2-2-2-2-2-2-2-2-2-2-2-2-2-2-2-2-2-2-2-2-2-|
          A-2-2-2-2-2-2-2-2-2-2-2-2-2-2-2-2-2-2-2-2-2-2-|
          E-0-0-0-0-0-0-0-0-0-0-0-0-0-0-0-0-0-0-0-0-0-0-|

       Happiness,                                   Yeah,

Gtrs 1+2: e-0-0-0-0-0-0-0-0-0-0-0-0-0-0-0-0-0-0-0-0-0-0-|
          B-0-0-0-0-0-0-0-0-0-0-0-0-0-0-0-0-0-0-0-0-0-0-|
          G-1-1-1-1-1-1-1-1-1-1-1-1-1-1-1-1-1-1-1-1-1-1-|
          D-2-2-2-2-2-2-2-2-2-2-2-2-2-2-2-2-2-2-2-2-2-2-|
          A-2-2-2-2-2-2-2-2-2-2-2-2-2-2-2-2-2-2-2-2-2-2-|
          E-0-0-0-0-0-0-0-0-0-0-0-0-0-0-0-0-0-0-0-0-0-0-|

Pre-Verse 2:
          
Gtr 1: e---------------------------------------------|
       B-------------------------4-4/5-5---4-4---2-2-|
       G---------------------------------------------|
       D---------------------------------------------|
       A---------------------------------------------|  
       E---------------------------------------------|

Gtr 1: e---------------------------------------------|
       B-------------------------4-4/5-5---4-4---2-2-|
       G---------------------------------------------|
       D---------------------------------------------|
       A---------------------------------------------|  
       E---------------------------------------------|

Gtr 2: e-0-0-0-0-0-0-0-0-0-0-0-0-0-0-0-0-0-0-0-0-0-0-|
       B-0-0-0-0-0-0-0-0-0-0-0-0-0-0-0-0-0-0-0-0-0-0-|
       G-1-1-1-1-1-1-1-1-1-1-1-1-1-1-1-1-1-1-1-1-1-1-|
       D-2-2-2-2-2-2-2-2-2-2-2-2-2-2-2-2-2-2-2-2-2-2-|
       A-2-2-2-2-2-2-2-2-2-2-2-2-2-2-2-2-2-2-2-2-2-2-|
       E-0-0-0-0-0-0-0-0-0-0-0-0-0-0-0-0-0-0-0-0-0-0-|

Verse 3:
  
       We ain't got a whole lotta money,

Gtr 1: e---------------------------------------------|
       B-------------------------4-4/5-5---4-4---2-2-|
       G---------------------------------------------|
       D---------------------------------------------|
       A---------------------------------------------|  
       E---------------------------------------------|

Gtr 2: e-------------------------0-0-2-4\2/4-5-----4-2-0| 
       B------------------------------------------------|
       G------------------------------------------------|
       D------------------------------------------------|
       A------------------------------------------------|
       E------------------------------------------------|

       How 'bout a five-star happy meal?

Gtr 1: e---------------------------------------------|
       B-------------------------4-4/5-5---4-4---2-2-|
       G---------------------------------------------|
       D---------------------------------------------|
       A---------------------------------------------|  
       E---------------------------------------------|

Gtr 2: e-------------------------0-0-2-4\2/4-5-----4-2-0| 
       B------------------------------------------------|
       G------------------------------------------------|
       D------------------------------------------------|
       A------------------------------------------------|
       E------------------------------------------------|

       Girl, everythin' we do is just like a party,

Gtr 1: e---------------------------------------------|
       B-------------------------4-4/5-5---4-4---2-2-|
       G---------------------------------------------|
       D---------------------------------------------|
       A---------------------------------------------|  
       E---------------------------------------------|

Gtr 2: e-------------------------0-0-2-4\2/4-5-----4-2-0| 
       B------------------------------------------------|
       G------------------------------------------------|
       D------------------------------------------------|
       A------------------------------------------------|
       E------------------------------------------------|

       There's nothin' left of me for you to steal,

Gtr 1: e---------------------------------------------|
       B-------------------------4-4/5-5---4-4---2-2-|
       G---------------------------------------------|
       D---------------------------------------------|
       A---------------------------------------------|  
       E---------------------------------------------|

Gtr 2: e-------------------------0-0-2-4\2/4-5-----4-2-0| 
       B------------------------------------------------|
       G------------------------------------------------|
       D------------------------------------------------|
       A------------------------------------------------|
       E------------------------------------------------|

Pre-chorus 2: (no guitar)
  
       Cause when a winter wind is blowin'
       I feel ya blowin' kisses in my ear,
       And when you think that you're just talkin' girl you know,
       It's singin' that I hear because,


Chorus:
  
       All that happens,

Gtrs 1+2: e-0-0-0-0-0-0-0-0-0-0-0-0-0-0-0-0-0-0-0-0-0-0-|
          B-0-0-0-0-0-0-0-0-0-0-0-0-0-0-0-0-0-0-0-0-0-0-|
          G-1-1-1-1-1-1-1-1-1-1-1-1-1-1-1-1-1-1-1-1-1-1-|
          D-2-2-2-2-2-2-2-2-2-2-2-2-2-2-2-2-2-2-2-2-2-2-|
          A-2-2-2-2-2-2-2-2-2-2-2-2-2-2-2-2-2-2-2-2-2-2-|
          E-0-0-0-0-0-0-0-0-0-0-0-0-0-0-0-0-0-0-0-0-0-0-|
   
       Is happiness,

Gtrs 1+2: e-0-0-0-0-0-0-0-0-0-0-0-0-0-0-0-0-0-0-0-0-0-0-|
          B-0-0-0-0-0-0-0-0-0-0-0-0-0-0-0-0-0-0-0-0-0-0-|
          G-1-1-1-1-1-1-1-1-1-1-1-1-1-1-1-1-1-1-1-1-1-1-|
          D-2-2-2-2-2-2-2-2-2-2-2-2-2-2-2-2-2-2-2-2-2-2-|
          A-2-2-2-2-2-2-2-2-2-2-2-2-2-2-2-2-2-2-2-2-2-2-|
          E-0-0-0-0-0-0-0-0-0-0-0-0-0-0-0-0-0-0-0-0-0-0-|

       Happiness,

Gtrs 1+2: e-0-0-0-0-0-0-0-0-0-0-0-0-0-0-0-0-0-0-0-0-0-0-|
          B-0-0-0-0-0-0-0-0-0-0-0-0-0-0-0-0-0-0-0-0-0-0-|
          G-1-1-1-1-1-1-1-1-1-1-1-1-1-1-1-1-1-1-1-1-1-1-|
          D-2-2-2-2-2-2-2-2-2-2-2-2-2-2-2-2-2-2-2-2-2-2-|
          A-2-2-2-2-2-2-2-2-2-2-2-2-2-2-2-2-2-2-2-2-2-2-|
          E-0-0-0-0-0-0-0-0-0-0-0-0-0-0-0-0-0-0-0-0-0-0-|

       When I'm with you,

       All that happens,

Gtrs 1+2: e-0-0-0-0-0-0-0-0-0-0-0-0-0-0-0-0-0-0-0-0-0-0-|
          B-0-0-0-0-0-0-0-0-0-0-0-0-0-0-0-0-0-0-0-0-0-0-|
          G-1-1-1-1-1-1-1-1-1-1-1-1-1-1-1-1-1-1-1-1-1-1-|
          D-2-2-2-2-2-2-2-2-2-2-2-2-2-2-2-2-2-2-2-2-2-2-|
          A-2-2-2-2-2-2-2-2-2-2-2-2-2-2-2-2-2-2-2-2-2-2-|
          E-0-0-0-0-0-0-0-0-0-0-0-0-0-0-0-0-0-0-0-0-0-0-|
   
       Is happiness,

Gtrs 1+2: e-0-0-0-0-0-0-0-0-0-0-0-0-0-0-0-0-0-0-0-0-0-0-|
          B-0-0-0-0-0-0-0-0-0-0-0-0-0-0-0-0-0-0-0-0-0-0-|
          G-1-1-1-1-1-1-1-1-1-1-1-1-1-1-1-1-1-1-1-1-1-1-|
          D-2-2-2-2-2-2-2-2-2-2-2-2-2-2-2-2-2-2-2-2-2-2-|
          A-2-2-2-2-2-2-2-2-2-2-2-2-2-2-2-2-2-2-2-2-2-2-|
          E-0-0-0-0-0-0-0-0-0-0-0-0-0-0-0-0-0-0-0-0-0-0-|

       Happiness,                                   Yeah,

Gtrs 1+2: e-0-0-0-0-0-0-0-0-0-0-0-0-0-0-0-0-0-0-0-0-0-0-|
          B-0-0-0-0-0-0-0-0-0-0-0-0-0-0-0-0-0-0-0-0-0-0-|
          G-1-1-1-1-1-1-1-1-1-1-1-1-1-1-1-1-1-1-1-1-1-1-|
          D-2-2-2-2-2-2-2-2-2-2-2-2-2-2-2-2-2-2-2-2-2-2-|
          A-2-2-2-2-2-2-2-2-2-2-2-2-2-2-2-2-2-2-2-2-2-2-|
          E-0-0-0-0-0-0-0-0-0-0-0-0-0-0-0-0-0-0-0-0-0-0-|


Pre-solo: 
Gtr 1: e---------------------------------------------|
       B-------------------------4-4/5-5---4-4---2-2-|
       G---------------------------------------------|
       D---------------------------------------------|
       A---------------------------------------------|  
       E---------------------------------------------|
       
       e---------------------------------------------|
       B-------------------------4-4/5-5---4-4---2-2-|
       G---------------------------------------------|
       D---------------------------------------------|
       A---------------------------------------------|  
       E---------------------------------------------|


Sorry, can't figure out the solo (you'll get it!)
 Gtr 2 do original riff under solo:

       e---------------------------------------------|
       B-------------------------4-4/5-5---4-4---2-2-|
       G---------------------------------------------|
       D---------------------------------------------|
       A---------------------------------------------|  
       E---------------------------------------------|


Chorus: 

 
       All that happens,

Gtr 2:    e-0-0-0-0-0-0-0-0-0-0-0-0-0-0-0-0-0-0-0-0-0-0-|
          B-0-0-0-0-0-0-0-0-0-0-0-0-0-0-0-0-0-0-0-0-0-0-|
          G-1-1-1-1-1-1-1-1-1-1-1-1-1-1-1-1-1-1-1-1-1-1-|
          D-2-2-2-2-2-2-2-2-2-2-2-2-2-2-2-2-2-2-2-2-2-2-|
          A-2-2-2-2-2-2-2-2-2-2-2-2-2-2-2-2-2-2-2-2-2-2-|
          E-0-0-0-0-0-0-0-0-0-0-0-0-0-0-0-0-0-0-0-0-0-0-|
   
       Is happiness,

Gtr 2:    e-0-0-0-0-0-0-0-0-0-0-0-0-0-0-0-0-0-0-0-0-0-0-|
          B-0-0-0-0-0-0-0-0-0-0-0-0-0-0-0-0-0-0-0-0-0-0-|
          G-1-1-1-1-1-1-1-1-1-1-1-1-1-1-1-1-1-1-1-1-1-1-|
          D-2-2-2-2-2-2-2-2-2-2-2-2-2-2-2-2-2-2-2-2-2-2-|
          A-2-2-2-2-2-2-2-2-2-2-2-2-2-2-2-2-2-2-2-2-2-2-|
          E-0-0-0-0-0-0-0-0-0-0-0-0-0-0-0-0-0-0-0-0-0-0-|

       Happiness,

Gtr 2:    e-0-0-0-0-0-0-0-0-0-0-0-0-0-0-0-0-0-0-0-0-0-0-|
          B-0-0-0-0-0-0-0-0-0-0-0-0-0-0-0-0-0-0-0-0-0-0-|
          G-1-1-1-1-1-1-1-1-1-1-1-1-1-1-1-1-1-1-1-1-1-1-|
          D-2-2-2-2-2-2-2-2-2-2-2-2-2-2-2-2-2-2-2-2-2-2-|
          A-2-2-2-2-2-2-2-2-2-2-2-2-2-2-2-2-2-2-2-2-2-2-|
          E-0-0-0-0-0-0-0-0-0-0-0-0-0-0-0-0-0-0-0-0-0-0-|

       When I'm with you,

       All that happens,

Gtr 2:    e-0-0-0-0-0-0-0-0-0-0-0-0-0-0-0-0-0-0-0-0-0-0-|
          B-0-0-0-0-0-0-0-0-0-0-0-0-0-0-0-0-0-0-0-0-0-0-|
          G-1-1-1-1-1-1-1-1-1-1-1-1-1-1-1-1-1-1-1-1-1-1-|
          D-2-2-2-2-2-2-2-2-2-2-2-2-2-2-2-2-2-2-2-2-2-2-|
          A-2-2-2-2-2-2-2-2-2-2-2-2-2-2-2-2-2-2-2-2-2-2-|
          E-0-0-0-0-0-0-0-0-0-0-0-0-0-0-0-0-0-0-0-0-0-0-|
   
       Is happiness,

Gtr 2:    e-0-0-0-0-0-0-0-0-0-0-0-0-0-0-0-0-0-0-0-0-0-0-|
          B-0-0-0-0-0-0-0-0-0-0-0-0-0-0-0-0-0-0-0-0-0-0-|
          G-1-1-1-1-1-1-1-1-1-1-1-1-1-1-1-1-1-1-1-1-1-1-|
          D-2-2-2-2-2-2-2-2-2-2-2-2-2-2-2-2-2-2-2-2-2-2-|
          A-2-2-2-2-2-2-2-2-2-2-2-2-2-2-2-2-2-2-2-2-2-2-|
          E-0-0-0-0-0-0-0-0-0-0-0-0-0-0-0-0-0-0-0-0-0-0-|

       Happiness,                                   Yeah,

Gtr 2:    e-0-0-0-0-0-0-0-0-0-0-0-0-0-0-0-0-0-0-0-0-0-0-|
          B-0-0-0-0-0-0-0-0-0-0-0-0-0-0-0-0-0-0-0-0-0-0-|
          G-1-1-1-1-1-1-1-1-1-1-1-1-1-1-1-1-1-1-1-1-1-1-|
          D-2-2-2-2-2-2-2-2-2-2-2-2-2-2-2-2-2-2-2-2-2-2-|
          A-2-2-2-2-2-2-2-2-2-2-2-2-2-2-2-2-2-2-2-2-2-2-|
          E-0-0-0-0-0-0-0-0-0-0-0-0-0-0-0-0-0-0-0-0-0-0-|


Outro: 

      Ad Lib vocal

Gtr 1: 

       Optional Capo 12th fret      
 
       e-12-12-12-12-12-12-12-12-12-12-12-12-12-12-12-|
       B-12-12-12-12-12-12-12-12-12-12-12-12-12-12-12-|
       G-13-13-13-13-13-13-13-13-13-13-13-13-13-13-13-| Repeat a bit 
       D-14-14-14-14-14-14-14-14-14-14-14-14-14-14-14-|
       A-14-14-14-14-14-14-14-14-14-14-14-14-14-14-14-|
       E-12-12-12-12-12-12-12-12-12-12-12-12-12-12-12-|

Gtr 2: e---------------------------------------------|
       B-------------------------4-4/5-5---4-4---2-2-|
       G---------------------------------------------|  Repeat a bit
       D---------------------------------------------|
       A---------------------------------------------|  
       E---------------------------------------------|


        
       See? Easy









       





        


     

      
      
Suggest correction
Give kudos to tab author, rate the tab!
1 2 3 4 5
comments
print report bad tab
1 comment total.
0 reply
Ro734 156 wrote on May 17 2008, 07:10 am

Hi
It was me that did this but I got half of it wrong(I'm only 10 u know)
Use version 5

guest
You may want to rate the tab now too:
select rating
Wanna post a correction for this tab? Suggest correction