Oops, an error
Loading. Please wait.

Happiness Tab

version 5
version 5

Whole song

334 views 1 this week
1 commentread comment
1 2 3 4 5
please rate
add to favorites
launch autoscroll
font size
0
reset
how to read this tab
guitar tuner
Tab Pro tools
  • play this tab
  • loop segment
  • change instrument
  • show fretboard
  • metronome
×
Best way to learn
"Happiness"
Autoscroll
slow
fast
+/-
esc
set tempo
stop
Contributor
+--------------------------------------------------------------------------+
|Happiness                                                                 |
|Orson                                                                     |
|Album "Bright idea"                                                       |
+--------------------------------------------------------------------------+

This is one of the best songs ever! Sorry that I went wrong in Version 4 Made
some minor improvements

Verse 1:

Gtr 1: e-------------------------------------------------------------------|
       B----------------------4-4/5-5---4-4---2-2--------------------------|
       G-------------------------------------------------------------------|
       D-------------------------------------------------------------------|
       A-------------------------------------------------------------------|
       E-------------------------------------------------------------------|
                          Play 4 times

Verse 2:

Gtr 1: e-------------------------------------------------------------------|
       B----------------------4-4/5-5---4-4---2-2--------------------------|
       G-------------------------------------------------------------------|
       D-------------------------------------------------------------------|
       A-------------------------------------------------------------------|
       E-------------------------------------------------------------------|

Gtr 2: e-0-0-0-0-0-0-0-0-0-0-0-0-0-0-0-0-0-0-0-0-0-0-0-0-0-0-0-0-0-0-0-0-0-|
       B-5-5-5-5-5-5-5-5-5-5-5-5-5-5-5-5-5-5-5-5-5-5-5-5-5-5-5-5-5-5-5-5-5-|
       G-0-0-0-0-0-0-0-0-0-0-0-0-0-0-0-0-0-0-0-0-0-0-0-0-0-0-0-0-0-0-0-0-0-|
       D-------------------------------------------------------------------|
       A-------------------------------------------------------------------|
       E-------------------------------------------------------------------|
                             Play Twice
Gtr 1: e-------------------------------------------------------------------|
       B----------------------4-4/5-5---4-4---2-2--------------------------|
       G-------------------------------------------------------------------|
       D-------------------------------------------------------------------|
       A-------------------------------------------------------------------|
       E-------------------------------------------------------------------|

Gtr 2: e-0-0-0-0-0-0-0-0-0-0-0-0-0-0-0-0-0-0-0-0-0-0-0-0-0-0-0-0-0-0-0-0-0-|
       B-5-5-5-5-5-5-5-5-5-5-5-5-5-5-5-5-5-5-5-5-5-5-5-5-5-5-5-5-5-5-5-5-5-|
       G-0-0-0-5b6r5-0-0-0-0-0-0-0-0-0-0-0-0-0-0-0-0-0-0-0-0-0-0-0-0-0-0-0-|
       D-------------------------------------------------------------------|
       A-------------------------------------------------------------------|
       E-------------------------------------------------------------------|

                                     Play twice

Pre-chorus 1:  no guitar

Chorus:

Gtrs 1+2:   e--0-0-0-0-0-0-0-0-0-0-0-0-0-0-0-0-0-0-0-0-0-0-0-0-0-0-0-0-0-0-|
            B--0-0-0-0-0-0-0-0-0-0-0-2-2-2-2-2-2-2-2-2-2-2-2-2-2-2-2-2-2-2-|
            G--1-1-1-1-1-1-1-1-1-1-0-2-2-2-2-2-2-2-2-2-2-2-2-2-2-2-2-2-2-2-|
            D--2-2-2-2-2-2-2-2-2-2-0-2-2-2-2-2-2-2-2-2-2-2-2-2-2-2-2-2-2-2-|
            A--2-2-2-2-2-2-2-2-2-2-0-0-0-0-0-0-0-0-0-0-0-0-0-0-0-0-0-0-0-0-|
            E--0-0-0-0-0-0-0-0-0-0-0---------------------------------------|

Pre-pre-verse:

Gtr 1: e-------------------------------------------------------------------|
       B----------------------4-4/5-5---4-4---2-2--------------------------|
       G-------------------------------------------------------------------|
       D-------------------------------------------------------------------|
       A-------------------------------------------------------------------|
       E-------------------------------------------------------------------|

Pre verse:

Gtr 1: e-------------------------------------------------------------------|
       B----------------------4-4/5-5---4-4---2-2--------------------------|
       G-------------------------------------------------------------------|
       D-------------------------------------------------------------------|
       A-------------------------------------------------------------------|
       E-------------------------------------------------------------------|

Gtrs 2:e-0-0-0-0-0-0-0-0-0-0-0-0-0-0-0-0-0-0-0-0-0-0-0-0-0-0-0-0-0-0-0-0-----|
         B-5-5-5-5-5-5-5-5-5-5-5-5-5-5-5-5-5-5-5-5-5-5-5-5-5-5-5-5-5-5-5-5---|
         G-0-0-0-0-0-0-0-0-0-0-0-0-0-0-0-0-0-0-0-0-0-0-0-0-0-0-0-0-0-0-0-0---|
         D-------------------------------------------------------------------|
         A-------------------------------------------------------------------|
         E-------------------------------------------------------------------|
Verse 3:
Gtr 1: e-------------------------------------------------------------------|
       B----------------------4-4/5-5---4-4---2-2--------------------------|
       G----------------------4-4/5-5---4-4---2-2--------------------------|
       D----------------------2-2/3-3---2-2---0-0--------------------------|
       A-------------------------------------------------------------------|
       E-------------------------------------------------------------------|

Gtr 2: e----------------------0-0-2-4\2/4-5~~----------------------4-2-0-|
Fill 2 B-----------------------------------------------------------------|
       G-----------------------------------------------------------------|
       D-----------------------------------------------------------------|
       A-----------------------------------------------------------------|
       E-----------------------------------------------------------------|
                               Play 4 times


Pre-chorus 2: no guitar

Chorus:

Gtrs 1+2:   e--0-0-0-0-0-0-0-0-0-0-0-0-0-0-0-0-0-0-0-0-0-0-0-0-0-0-0-0-0-0-|
            B--0-0-0-0-0-0-0-0-0-0-0-2-2-2-2-2-2-2-2-2-2-2-2-2-2-2-2-2-2-2-|
            G--1-1-1-1-1-1-1-1-1-1-0-2-2-2-2-2-2-2-2-2-2-2-2-2-2-2-2-2-2-2-|
            D--2-2-2-2-2-2-2-2-2-2-0-2-2-2-2-2-2-2-2-2-2-2-2-2-2-2-2-2-2-2-|
            A--2-2-2-2-2-2-2-2-2-2-0-0-0-0-0-0-0-0-0-0-0-0-0-0-0-0-0-0-0-0-|
            E--0-0-0-0-0-0-0-0-0-0-0---------------------------------------|


Pre-solo:

Gtr 1: e-------------------------------------------5-4-0-------------------|
       B----------------------4-4/5-5---4-4---2-2--------------------------|
       G----------------------4-4/5-5---4-4---2-2--------------------------|
       D----------------------2-2/3-3---2-2---0-0--------------------------|
       A-------------------------------------------------------------------|
       E-------------------------------------------------------------------|

Gtr 2: e-0-0-0-0-0-0-0-0-0-0-0-0-0-0-0-0-0-0-0-0-0-0-0-0-0-0-0-0-0-0-0-0-|
       B-5-5-5-5-5-5-5-5-5-5-5-5-5-5-5-5-5-5-5-5-5-5-5-5-5-5-5-5-5-5-5-5-|
       G-0-0-0-0-0-0-0-0-0-0-0-0-0-0-0-0-0-0-0-0-0-0-0-0-0-0-0-0-0-0-0-0-|
       D-----------------------------------------------------------------|
       A-----------------------------------------------------------------|
       E-----------------------------------------------------------------|

Gtr 1: e-------------------------------------------------------------------|
       B----------------------4-4/5-5---4-4---2-2--------------------------|
       G----------------------4-4/5-5---4-4---2-2--------------------------|
       D----------------------2-2/3-3---2-2---0-0--------------------------|
       A-------------------------------------------------------------------|
       E-------------------------------------------------------------------|

Gtr 2: e-0-0-0-0-0-0-0-0-0-0-0-0-0-0-0-0-0-0-0-0-0-0-0-0-0-0-0-0-0-0-0-0-|
       B-5-5-5-5-5-5-5-5-5-5-5-5-5-5-5-5-5-5-5-5-5-5-5-5-5-5-5-5-5-5-5-5-|
       G-0-0-0-0-0-0-0-0-0-0-0-0-0-0-0-0-0-0-0-0-0-0-0-0-0-0-0-0-0-0-0-0-|
       D-----------------------------------------------------------------|
       A-----------------------------------------------------------------|
       E-----------------------------------------------------------------|

Solo: still workin on that (you'll get it...)

Gtr 1 play solo
Gtr 2 main riff:
       e-------------------------------------------------------------------|
       B----------------------4-4/5-5---4-4---2-2--------------------------|
       G----------------------4-4/5-5---4-4---2-2--------------------------|
       D----------------------2-2/3-3---2-2---0-0--------------------------|
       A-------------------------------------------------------------------|
       E-------------------------------------------------------------------|


Chorus

Outro:
Gtr 1 main riff

Gtr 2(chords):

e|-12-12\11-|
B|-12-12\11-|
G|-13-12\11-|
D|-14-12\11-|
A|-14-12\11-|
E|-12-12\11-|

Done!
----------------------------------------------------------------------------
Happiness by Orson

Lyrics
Verse 1:
Do I really need a reason?
+--------------------+
| Guitar 1 main riff |
+--------------------+
Is it really such a big deal?
+--------------------+
| Guitar 1 main riff |
+--------------------+
It just seems like the right situation,
+--------------------+
| Guitar 1 main riff |
+--------------------+
To say how I really feel
+--------------------+
| Guitar 1 main riff |
+--------------------+
Verse 2:
I love the way that ya look at me,
+--------------------+
| Guitar 1 main riff |
+--------------------+
|Guitar 2 chords     |
+--------------------+
So I can't stop lookin' at you,
+--------------------+
| Guitar 1 main riff |
+--------------------+
|Guitar 2 chords     |
+--------------------+
Ooh,
And the sweetest thing that ya do for me baby,
+--------------------+
|Guitar 1 main riff  |
+--------------------+
|Guitar 2 chords     |
+--------------------+
Is all the little things that you do
+--------------------+
|Guitar 1 main riff  |
+--------------------+
|Guitar 2 chords     |
Pre-chorus 1:
Coz when the world don't feel like turnin'
And the sun just wants to hide,
All the stars come out to remind me,
Of the universe by my side because,

Chorus:
All that happens,
+---------------+
|All gtrs chords|
+---------------+
Is happiness,
+---------------+
|All gtrs chords|
+---------------+
Happiness,
+---------------+
|All gtrs chords|
+---------------+
When I'm with you,
All that happens,
+---------------+
|All gtrs chords|
+---------------+
Is happiness,
+---------------+
|All gtrs chords|
+---------------+
Happiness,
+---------------+
|All gtrs chords|
+---------------+
Yeah

+-------------------+
|Gtr 1 Pre-pre-verse|
+-------------------+

+-------------------+
|All gtrs pre-verse |
+-------------------+

Verse 3:
We ain't got a whole lotta money,
+----------------+
|Gtr 1 Main riff |
+----------------+
|Gtr 2 fill      |
+----------------+
How 'bout a 5-star happy meal,
+----------------+
|Gtr 1 Main riff |
+----------------+
|Gtr 2 fill      |
+----------------+
Girl,everything we do is just like a party,
+----------------+
|Gtr 1 Main riff |
+----------------+
|Gtr 2 fill      |
+----------------+
There's nothin' left of me for you to steal
+----------------+
|Gtr 1 Main riff |
+----------------+
|Gtr 2 fill      |
+----------------+
Pre-chorus 2:
Coz' when the winter wind is blowin',
I hear ya blowin' kisses in my ear,
And when you think that you're just talkin' girl,you know,
It's singin' that I hear because,

Chorus:
All that happens,
+---------------+
|All gtrs chords|
+---------------+
Is happiness,
+---------------+
|All gtrs chords|
+---------------+
Happiness,
+---------------+
|All gtrs chords|
+---------------+
When I'm with you,
All that happens,
+---------------+
|All gtrs chords|
+---------------+
Is happiness,
+---------------+
|All gtrs chords|
+---------------+
Happiness,
+---------------+
|All gtrs chords|
+---------------+
Yeah
+-----------------+
|All gtrs pre-solo|
+------------------|
+------------------|
|All gtrs solo|
+-------------+

Chorus:
All that happens,
+---------------+
|All gtrs chords|
+---------------+
Is happiness,
+---------------+
|All gtrs chords|
+---------------+
Happiness,
+---------------+
|All gtrs chords|
+---------------+
When I'm with you,
All that happens,
+---------------+
|All gtrs chords|
+---------------+
Is happiness,
+---------------+
|All gtrs chords|
+---------------+
Happiness,
+---------------+
|All gtrs chords|
+---------------+
Yeah

+--------------+
|All gtrs outro|
+----------------------------------------------------------------------------|
-----------------------------------------------------------------------------|

Happiness
Orson
Bright idea track 3
Tabbed by Ro734
Chester
England
E-mail: rjrannard@aol.com
============================================================================

| /  slide up
| \  slide down
| h  hammer-on
| p  pull-off
| ~  vibrato
| +  harmonic
| x  Mute note
============================================================================
comments
We did not receive enough feedback on this tab! Please rate:
print report bad tab
1 2 3 4 5
1 comment total.
0 reply
Ro734 wrote on May 25 2008, 02:33 pm

Did u know this takes 11 pages 2 print?

I want to post or [tab]
guest
You may want to rate the tab now too:
select rating
Please do not post tabs as comments. Select "correction" instead!