Oops, an error
Loading. Please wait.

No Tomorrow Bass Tab

version 3
version 3

Whole song

Interactive

5,690 views 3 this week
4 commentsread comments
1 2 3 4 5
x 7
add to favorites
launch autoscroll
font size
0
reset
guitar tuner
Autoscroll
slow
fast
+/-
esc
set tempo
stop
Help us to improve Ultimate-Guitar.com Take our survey!
×
Author
Difficulty
novice
-----------------------------------------------------------------------
   ORSON - No Tomorrow
--------------------------------------------------------------------------

Tabbed By : Joe Wright
e-mail: joeywright@hotmail.co.uk

Tuning: Standard
All verses and choruses the same so I'l just tab them once, I just want to get a decent 
up for this song. Please rate.

Intro/Verse
G|------------------------------------------------------------------------|
D|------------------------------------------------------------------------|
A|--------6-------------x3--------------------------11---11--11--11--11---|
E|-----------6--7--7------------------------------------------------------|

Woo Woo Woo's!
G|----------------------------------------------------------------------------------|
D|----------------------------------------------------------------------------------|
A|-------6--------------x3----------------------------4-5-6-----------6-------------|
E|---------6--7---7-------------4-----4--7--4--7----------6--7-7------7--7--etc-----|

Chorus
G|-------------------------------------------------------------------------------|
D|-------------------------------------------------------------------------------|
A|----2-2-2--4--4--4--5--5--5--6--6--6----3x--then-------------------------------|
E|-----------------------------------------------------------------6----4--4---4-|

Sorry its rushed but its right :)
Suggest correction
comments
print report bad tab
4 comments total. Showing first comments.
0 reply
astiggurl28 51 Sep 28, 2006 06:43 AM

perfect. ;) love it keep it up \m/

0 reply
slashjr123 26 Jul 08, 2007 08:30 AM

great tab, i love this song, it should be more famous

0 reply
tescorob 31 Apr 04, 2008 04:53 PM

missed some fills maybe but good tabbing! great song

guest
You may want to rate the tab now too:
select rating
Wanna post a correction for this tab? Suggest correction