Oops, an error
Loading. Please wait.

Tryin To Help Bass Tab

209 views 1 this week
no commentswrite comment
1 2 3 4 5
2 more votes to show rating
add to favorites
launch autoscroll
font size
0
reset
guitar tuner
Autoscroll
slow
fast
+/-
esc
set tempo
stop
Help us to improve Ultimate-Guitar.com Take our survey!
×
Author
Difficulty
novice
-------------------------------------------------------------------------------
			     Tryin' To Help - Orson
-------------------------------------------------------------------------------

Tabbed By : The Blowes
e-mail: charlieblowes@hotmail.co.uk

Tuning: Standard - EADG

(Bass doesn't come in until around 0:18)

Verse
G|---------------------------------------|-----------------------------------|
D|---------------------------------------|-----------------------------------|
A|---8--8-----8--10--10--8--0---------8--|---8-----8--10--10--8--0--------8--|
E|---------10------------------8--10-----|------10------------------8--10----|

Verse Variation
G|---------------------------------------|
D|---------------------------------------|
A|---8-----8--10--10--8--0---------------|
E|------10------------------8--10--1-----|

Chorus
G|--------------------------------------------|
D|--------------------------------------------|
A|--1111111133333333--------11111111011111111-|   X2
E|------------------11111111------------------|
(those are 1's and 3's, not 11's, 13's and 10's :)


Post-Chorus
G|---------------------------------|
D|---------------------------------|
A|--1-1-----------------------3-3--| X3
E|---------------------------------|
               Communication shakedown...

Then there's a bit more of a post-chorus but i haven't worked out the tab yet :P
G|---------------------------------------------------------------------------|
D|---------------------------------------------------------------------------|
A|---------------------------------------------------------------------------|
E|---------------------------------------------------------------------------|

Chorus again


Outro
G|---------------------------------------------------------------------------|
D|---------------------------------------------------------------------------|
A|----------------------------------5--3-------------------------------------|
E|--1-1----1-1--------------1-1----------------------------------------------|
G|---------------------------------------------------------------------------|

Thats it :]
Suggest correction
Give kudos to tab author, rate the tab!
1 2 3 4 5
comments
print report bad tab
guest
You may want to rate the tab now too:
select rating
Wanna post a correction for this tab? Suggest correction