Oops, an error
Loading. Please wait.

Al Filo De Tu Piel Tab

23 views 1 this week
no commentswrite comment
1 2 3 4 5
3 more votes to show rating
add to favorites
launch autoscroll
font size
0
reset
how to read this tab
guitar tuner
×
Best way to learn
"Al Filo De Tu Piel"
Autoscroll
slow
fast
+/-
esc
set tempo
stop
INTRO:
   A             E             F#m           D
E|-5-5-5-4--5-5--5-5-5-4--5-5--5-5-5-4--5-5--5-5-5-4--5-5--
B|-5-5-5-5--5-5--5-5-5-5--5-5--5-5-5-5--5-5--5-5-5-5--5-5--
G|--------------------------------------------------------- (x2)
D|---------------------------------------------------------
A|---------------------------------------------------------
E|---------------------------------------------------------

VERSO:
   A5-(A)         E5-(E)       F#5-(F#m)     D5-(D) 
E|---------------------------------------------------------
B|-------------------------------------------3-3-3-3-3-3-3-
G|-2-2-2-2-2-2-2-----------------------------2-2-2-2-2-2-2- (x2)
D|-2-2-2-2-2-2-2-2-2-2-2-2-2-2-4-4-4-4-4-4-4-0-0-0-0-0-0-0-
A|-0-0-0-0-0-0-0-2-2-2-2-2-2-2-4-4-4-4-4-4-4---------------
E|---------------0-0-0-0-0-0-0-2-2-2-2-2-2-2---------------

    A             E              F#m           D
E|---4h5-4--4h5----4h5-4--4h5----4h5-4--4h5------------
B|--------------5-------------5-------------5----------
G|----------------------------------------------------- (x2)
D|-----------------------------------------------------
A|-----------------------------------------------------
E|-----------------------------------------------------

PRE-CHORUS:
   F#5-(F#m) E5-(E)    A5-(A)    D5-(D)    E5-(E)
E|-----------------------------------------------------
B|-------------------------------3-3-3-3-3-------------
G|---------------------2-2-2-2-2-2-2-2-2-2-------------
D|-4-4-4-4-4-2-2-2-2-2-2-2-2-2-2-0-0-0-0-0-2-2-2-2-2---
A|-4-4-4-4-4-2-2-2-2-2-0-0-0-0-0-----------2-2-2-2-2---
E|-2-2-2-2-2-0-0-0-0-0---------------------0-0-0-0-0---

CORO:
   A5-(A)         E5-(E)       F#5-(F#m)     D5-(D) 
E|---------------------------------------------------------
B|-------------------------------------------3-3-3-3-3-3-3-
G|-2-2-2-2-2-2-2-----------------------------2-2-2-2-2-2-2- (x2)
D|-2-2-2-2-2-2-2-2-2-2-2-2-2-2-4-4-4-4-4-4-4-0-0-0-0-0-0-0-
A|-0-0-0-0-0-0-0-2-2-2-2-2-2-2-4-4-4-4-4-4-4---------------
E|---------------0-0-0-0-0-0-0-2-2-2-2-2-2-2---------------

PUENTE:
   A             E             F#m           D
E|-5-5-5-4--5-5--5-5-5-4--5-5--5-5-5-4--5-5--5-5-5-4--5-5--
B|-5-5-5-5--5-5--5-5-5-5--5-5--5-5-5-5--5-5--5-5-5-5--5-5--
G|--------------------------------------------------------- (x2)
D|---------------------------------------------------------
A|---------------------------------------------------------
E|---------------------------------------------------------

VERSO:
   A5-(A)         E5-(E)       F#5-(F#m)     D5-(D) 
E|---------------------------------------------------------
B|-------------------------------------------3-3-3-3-3-3-3-
G|-2-2-2-2-2-2-2-----------------------------2-2-2-2-2-2-2- (x2)
D|-2-2-2-2-2-2-2-2-2-2-2-2-2-2-4-4-4-4-4-4-4-0-0-0-0-0-0-0-
A|-0-0-0-0-0-0-0-2-2-2-2-2-2-2-4-4-4-4-4-4-4---------------
E|---------------0-0-0-0-0-0-0-2-2-2-2-2-2-2---------------

    A             E              F#m           D
E|---4h5-4--4h5----4h5-4--4h5----4h5-4--4h5------------
B|--------------5-------------5-------------5----------
G|----------------------------------------------------- (x2)
D|-----------------------------------------------------
A|-----------------------------------------------------
E|-----------------------------------------------------

PRE-CHORUS:
   F#5-(F#m) E5-(E)    A5-(A)    D5-(D)    E5-(E)
E|-----------------------------------------------------
B|-------------------------------3-3-3-3-3-------------
G|---------------------2-2-2-2-2-2-2-2-2-2-------------
D|-4-4-4-4-4-2-2-2-2-2-2-2-2-2-2-0-0-0-0-0-2-2-2-2-2---
A|-4-4-4-4-4-2-2-2-2-2-0-0-0-0-0-----------2-2-2-2-2---
E|-2-2-2-2-2-0-0-0-0-0---------------------0-0-0-0-0---

CORO:
   A5-(A)         E5-(E)       F#5-(F#m)     D5-(D) 
E|---------------------------------------------------------
B|-------------------------------------------3-3-3-3-3-3-3-
G|-2-2-2-2-2-2-2-----------------------------2-2-2-2-2-2-2- (x2)
D|-2-2-2-2-2-2-2-2-2-2-2-2-2-2-4-4-4-4-4-4-4-0-0-0-0-0-0-0-
A|-0-0-0-0-0-0-0-2-2-2-2-2-2-2-4-4-4-4-4-4-4---------------
E|---------------0-0-0-0-0-0-0-2-2-2-2-2-2-2---------------

SOLO:
   F#m         D       A         E             F#m          D
E|-7h9--7-------------------------------------------------9-10--
B|--------10-9-7------------------12-10-9-10-12-10-----10-------
G|-----------------9h11---------9------------------11-----------
D|----------------------11-9-11---------------------------------
A|--------------------------------------------------------------
E|--------------------------------------------------------------

        A          E
E|----7-9---10--9--7---
B|-10------------------
G|---------------------
D|---------------------
A|---------------------
E|---------------------

 OUTRO:
*TOCAR en forma Arpegiada:
A-E-F#m-D (x2)

Luego
   A5-(A)         E5-(E)       F#5-(F#m)     D5-(D) 
E|---------------------------------------------------------
B|-------------------------------------------3-3-3-3-3-3-3-
G|-2-2-2-2-2-2-2-----------------------------2-2-2-2-2-2-2- (x3)
D|-2-2-2-2-2-2-2-2-2-2-2-2-2-2-4-4-4-4-4-4-4-0-0-0-0-0-0-0-
A|-0-0-0-0-0-0-0-2-2-2-2-2-2-2-4-4-4-4-4-4-4---------------
E|---------------0-0-0-0-0-0-0-2-2-2-2-2-2-2---------------

   A             E             F#m           D
E|-5-5-5-4--5-5--5-5-5-4--5-5--5-5-5-4--5-5--5-5-5-4--5-5--
B|-5-5-5-5--5-5--5-5-5-5--5-5--5-5-5-5--5-5--5-5-5-5--5-5--
G|--------------------------------------------------------- /hasta que\
D|--------------------------------------------------------- \  acabe  /
A|---------------------------------------------------------
E|---------------------------------------------------------
Suggest correction
Give kudos to tab author, rate the tab!
1 2 3 4 5
comments
print report bad tab
guest
You may want to rate the tab now too:
select rating
Wanna post a correction for this tab? Suggest correction