Oops, an error
Loading. Please wait.

Flavor Tab

2,233 views 6 this week
1 commentread comment
1 2 3 4 5
excellent!
x 2
add to favorites
launch autoscroll
font size
0
reset
how to read this tab
guitar tuner
Tab Pro tools
  • play this tab
  • loop segment
  • change instrument
  • show fretboard
  • metronome
Autoscroll
slow
fast
+/-
esc
set tempo
stop
Contributor
       flavor tab by oscar lopez

                       classical guitar

|-----0-----0-----0-------0---------|
|---1-----1-----1-------1-----------|
|-4-----2-----0-----0h2-----2p0h2---|
|-----------------------------------|
|-----------------------------------|
|-----------------------------------|

|-----0-----0-----0-----------------|
|---1-----1-----1-------1-----------|
|-4-----2-----0-----0h2---2p0-------|
|-----------------------------------|
|-----------------------------------|
|-----------------------------------|

|--------------------------0---|
|-------0-----------------0----|
|-----0---0--------------0-----|
|---4-------4-----------4------|
|-2-----------2--------2-------|
|--------------0------0--------|

|--------------------------0---|
|-------0-----------------0----|
|-----0---0--------------0-----|
|---4-------4-----------4------|
|-2-----------2--------2-------|
|---------------0-----0--------|

|-----0-----0-----0-------0---------|
|---1-----1-----1-------1-----------|
|-4-----2-----0-----0h2-----2p0h2---|
|-----------------------------------|
|-----------------------------------|
|-----------------------------------|

|-----0-----0-----0-----------------|
|---1-----1-----1-------1-----------|
|-4-----2-----0-----0h2---2p0-------|
|-----------------------------------|
|-----------------------------------|
|-----------------------------------|

|--------------------------0---|
|-------0-----------------0----|
|-----0---0--------------0-----|
|---4-------4-----------4------|
|-2-----------2--------2-------|
|--------------0------0--------|

|--------------------------0---|
|-------0-----------------0----|
|-----0---0--------------0-----|
|---4-------4-----------4------|
|-2-----------2--------2-------|
|---------------0-----0--------|

|-----7-7---------7-----7--------------10----12\-|
|----8---8-------8-----8-----8---10/12----12-----|
|---9-----9-----9-----9----9---9-----------------|
|--9-------9---9-----9---------------------------|
|-7---------7-7-----7----------------------------|
|------------------------------------------------|

|----3-2--------2----2-------12-10-7-10-7--|
|---3---3------3----3-----8--10--8-5--8-5--|
|--2-----2----2----2----9------------------|
|-0-------0--0----0------------------------|
|------------------------------------------|
|------------------------------------------|

|-----0-0----7-7-7\5\3-5-3-2--2---|
|----1---1---5-5-5\3\1-3-1-0--0---|
|---0----------------------2--2---|
|--2-----------------------1------|
|-3------------------------2------|
|---------------------------------|

|-2h3h5p3p2-------------2h3h5p3p2-----0h2-2--|
|------------4h5h7p5p4------------5-4-----0--|
|--------------------------------------------|
|--------------------------------------------|
|--------------------------------------------|
|--------------------------------------------|

|-2h3h5p3p2-------------2h3h5p3p2------0--0--|
|------------4h5h7p5p4------------5-4--0--0--|
|--------------------------------------0-----|
|--------------------------------------2-----|
|--------------------------------------------|

|-------------10----12\--|
|---8---10/12----12------|
|-9---9------------------|
|------------------------|
|------------------------|
|------------------------|

|----3-2--------2----3-------12-10-7-10-7--|
|---3---3------3----3-----8--10--8-5--8-5--|
|--2-----2----2----2----9------------------|
|-0-------0--0----0------------------------|
|------------------------------------------|
|------------------------------------------|

|-----0-------7-7-7\5\3-5-3-2--2---|
|----1--------5-5-5\3\1-3-1-0--0---|
|---0-----------------------2--2---|
|--2------------------------1------|
|-3-------------------------2------|
|-----------------------------------|

|-2h3h5p3p2-------------2h3h5p3p2-----0h2-2--|
|------------4h5h7p5p4------------5-4-----0--|
|--------------------------------------------|
|--------------------------------------------|
|--------------------------------------------|
|--------------------------------------------|

|-2h3h5p3p2-------------2h3h5p3p2------0--0--|
|------------4h5h7p5p4------------5-4--0--0--|
|--------------------------------------0-----|
|--------------------------------------2-----|
|------------------------------------------

|-7h8h10p8p7------------7h8h10p8p7-----------------|
|------------7h8h10p8p7-----------10-8-10/12--12---|
|---------------------------------------------11---|
|--------------------------------------------------|
|--------------------------------------------------|
|--------------------------------------------------|

|-7h8h10p8p7------------7h8h10p8p7-------------0-0-|
|------------7h8h10p8p7-----------10-8\-------0--0-|
|--------------------------------------------0-----|
|-------------------------------------------2------|
|------------------------------------------2-------|
|-----------------------------------------0--------|

|-------0----0p0---------2--2---------2-3-5---|
|------1-----1---1------3---3-3-------3-2-----|
|-0---2----------2-----4------4---4-----------|
|----2----------------4---------4-------------|
|---0----------------2-------------2----------|
|---------------------------------------------|








    pompom@sympatico.ca
comments
We did not receive enough feedback on this tab! Please rate:
print report bad tab
1 2 3 4 5
1 comment total.
0 reply
kareem wrote on December 24 2007, 03:07 pm

This is NOT THE FLAVOR .. This is called "Mediterranian Sundance" for Al di Meola and Paco de Lucia

I want to post or [tab]
guest
You may want to rate the tab now too:
select rating
Please do not post tabs as comments. Select "correction" instead!