Oops, an error
Loading. Please wait.

Fran Och Med Du chords

version 2
version 2

Whole song

Interactive

6,691 views 12 this week
1 commentread comment
1 2 3 4 5
x 3
add to favorites
×
Save as Personal and add changes to this tab that will be seen only by you. Learn more ›
×
You can save this tab as Personal to edit and correct it or add notes. All changes will be seen only by you. Learn more »
launch autoscroll
font size
0
reset
transpose
0
reset
simplify chords
display chords
guitar tuner
edit
Autoscroll
slow
fast
+/-
esc
set tempo
stop
Strumming
There is no strumming pattern for this song yet. and get +5 IQ
-----------------------------------------------------------------------------
                       Fran och med du - Oskar Linnros
-----------------------------------------------------------------------------
Tabbed by: Schottis
Email: Schottis@gmail.com

Tuning: Standard 

The same pattern goes on for the whole song.
Also the same for the Robyn Mash-up with "Dancing on my own", except with a capo on 1st...


 | F     Am     | Gm     Bb/C C |
e|-1-----0--------3------5----0---------------------------------------------|
B|-1-----1--------3------2----1---------------------------------------------|
G|-2-----2--------3------4----0---------------------------------------------|
D|-3-----2--------5------2----2---------------------------------------------|
A|-3-----0--------5------2----3---------------------------------------------|
E|-1-----0--------3------x----0---------------------------------------------|

Listen to the song to get a feeling for the rhythm. Best played on piano. 


            
            
Suggest correction
Creating personal tab
Creating personal tab
You can edit any tab online and save it as your Personal.

You can edit, replace or remove any tab part or add personal notes – all changes will be seen only by you.

Personal tabs can be accessed anytime from any device, even offline.
Learn more »
Give kudos to tab author, rate the tab!
1 2 3 4 5
comments
print report bad tab
1 comment total.
0 reply
Schottis 25 May 09, 2012 01:09 PM

Or try this, if it suits you better:

| F Am | Gm Bb/C C |

guest
You may want to rate the tab now too:
select rating
Wanna post a correction for this tab? Suggest correction