Oops, an error
Loading. Please wait.

Anchor Acoustic tab

version 2
version 2

Whole song

by Osker
1,339 views 1 this week
no commentswrite comment
1 2 3 4 5
3 more votes to show rating
add to favorites
×
Save as Personal and add changes to this tab that will be seen only by you. Learn more ›
×
You can save this tab as Personal to edit and correct it or add notes. All changes will be seen only by you. Learn more »
launch autoscroll
font size
0
reset
how to read this tab
guitar tuner
edit
Autoscroll
slow
fast
+/-
esc
set tempo
stop
Author
Difficulty
you can figure out the strumming pattern. it's not too hard.
enjoy!

intro:


guitar 1:    4x

0---0---0-------0---0---0---0---0-------0---0-|
0---0---0-------0---0---0---0---0-------0---0-|
9---9---9-------9---9---9---9---9-------9---9-|
9---9---9-------9---9---9---9---9-------6---6-|
7---7---7-------7---7---7---0---0-------0---0-|
0---0---0-------0---0---0---9---9-------0---0-|


0---0---0-------0---0---0---0---0-------0---0-|
0---0---0-------0---0---0---0---0-------0---0-|
9---9---9-------9---9---9---9---9-------9---9-|
9---9---9-------9---9---9---10--10-----6---6--|
7---7---7-------7---7---7---0---0-------0---0-|
0---0---0-------0---0---0---0---0-------0---0-|

guitar 2:    2x

comes in after 2nd repeat of guitar 1

----------------------------------------------|
5-------4-------5---0---2---0-----------------|
----------------------------------------------|
----------------------------------------------|
----------------------------------------------|
----------------------------------------------|


----------------------------------------------|
5-------4-------5---0---2---0-----------------|
----------------------------------------------|
----------------------------------------------|
----------------------------------------------|
----------------------------------------------|

verse 1:     2x

0---0---0-0-0-0---0-0-0---0-0-0-0---0---0-0-0-0---0-0-0---0-0-0-|
0---0---0-0-0-0---0-0-0---0-0-0-0---0---0-0-0-0---0-0-0---0-0-0-|
6---6---6-6-6-6---6-6-6---6-6-6-6---6---6-6-6-6---6-6-6---6-6-6-|
6---6---6-6-6-6---6-6-6---6-6-6-7---7---7-7-7-7---7-7-7---7-7-7-|
4---4---4-4-4-4---4-4-4---4-4-4-7---7---7-7-7-7---7-7-7---7-7-7-|
--------------------------------5---5---5-5-5-5---5-5-5---5-5-5-|

        Christina       I'm     tired                    of
      Yeah,  I'm     still      here                    I'm

0---0---0-0-0-0---0-0-0---0-0-0-0---0---0-0-0-0---0-0-0---0-0-0-|
0---0---0-0-0-0---0-0-0---0-0-0-0---0---0-0-0-0---0-0-0---0-0-0-|
9---9---9-9-9-9---9-9-9---9-9-9-8---8---8-8-8-8---8-8-8---8-8-8-|
9---9---9-9-9-9---9-9-9---9-9-9-9---9---9-9-9-9---9-9-9---9-9-9-|
7---7---7-7-7-7---7-7-7---7-7-7-9---9---9-9-9-9---9-9-9---9-9-9-|
0---0---0-0-0-0---0-0-0---0-0-0-7---7---7-7-7-7---7-7-7---7-7-7-|

being     so     far         away....
not                          going....

Chorus:

0---0---0-0-0-0---0-0---0-0-0-0-0---0---0-0-0-0---0-0-0---0-0-0-|
0---0---0-0-0-0---0-0---0-0-0-0-0---0---0-0-0-0---0-0-0---0-0-0-|
6---6---6-6-6-4---4-4---4-4-4-4-2---2---2-2-2-2---2-2-2---2-2-2-|
6---6---6-6-6-4---4-4---4-4-4-4-2---2---2-2-2-2---2-2-2---2-2-2-|
4---4---4-4-4-2---2-2---2-2-2-2-0---0---0-0-0-0---0-0-0---0-0-0-|
--------------------------------0---0---0-0-0-0---0-0-0---0-0-0-|

   What  if   I     try    and  stop
 I'm   responsible        for   you                  Until the

2-2---4-4---5-5---------5-5-5-5-5-5-5-5-5-5-5-5-5-5-5-5-|
2-2---4-4---5-5---------5-5-5-5-5-5-5-5-5-5-5-5-5-5-5-5-|
2-2---4-6---6-6---------6-6-6-6-6-6-6-6-6-6-6-6-6-6-6-6-|
4-4---6-6---7-7---------7-7-7-7-7-7-7-7-7-7-7-7-7-7-7-7-|
4-4---6-6---7-7---------7-7-7-7-7-7-7-7-7-7-7-7-7-7-7-7-|
2-2---4-4---5-5---------5-5-5-5-5-5-5-5-5-5-5-5-5-5-5-5-|

an      chor                breaks            Until the

2-2---4-4---5-5---------5-5-5-5-5-5-5-5-5-5-5-5-5-5-5-5-|
2-2---4-4---5-5---------5-5-5-5-5-5-5-5-5-5-5-5-5-5-5-5-|
2-2---4-6---6-6---------6-6-6-6-6-6-6-6-6-6-6-6-6-6-6-6-|
4-4---6-6---7-7---------7-7-7-7-7-7-7-7-7-7-7-7-7-7-7-7-|
4-4---6-6---7-7---------7-7-7-7-7-7-7-7-7-7-7-7-7-7-7-7-|
2-2---4-4---5-5---------5-5-5-5-5-5-5-5-5-5-5-5-5-5-5-5-|

anchor                       breaks

guitar 2:    comes in at "anchor"  2x

0-0---5-5--4-4-0-0---5-5--4-4-0--2--4--2-----0--2--4--2-------|
--------------------------------------------------------------|
--------------------------------------------------------------|
--------------------------------------------------------------|
--------------------------------------------------------------|
--------------------------------------------------------------|

Refrain:    both guitars

0---0---0-0-0-0---0-0-0---0-0-0-0---0---0-0-0-0---0-0-0---0-0-0-|
0---0---0-0-0-0---0-0-0---0-0-0-0---0---0-0-0-0---0-0-0---0-0-0-|
8---8---8-8-8-8---8-8-8---0-0-0-6---6---6-6-6-6---6-6-6---6-6-6-|
9---9---9-9-9-9---9-9-9---9-9-9-7---7---7-7-7-7---7-7-7---7-7-7-|
9---9---9-9-9-9---9-9-9---9-9-9-7---7---7-7-7-7---7-7-7---7-7-7-|
7---7---7-7-7-7---7-7-7---7-7-7-5---5---5-5-5-5---5-5-5---5-5-5-|

Four       years              ahead
What       are      you       thinking
I feel             so         together

0---0---0-0-0-0---0-0-0---0-0-0-0---0---0-0-0-0---0-0---0-0-0-0-|
0---0---0-0-0-0---0-0-0---0-0-0-0---0---0-0-0-0---0-0---0-0-0-0-|
8---8---8-8-8-8---8-8-8---0-0-0-6---6---6-6-6-4---4-4---4-4-4-4-|
9---9---9-9-9-9---9-9-9---9-9-9-6---6---6-6-6-4---4-4---4-4-4-4-|
9---9---9-9-9-9---9-9-9---9-9-9-4---4---4-4-4-2---2-2---2-2-2-2-|
7---7---7-7-7-7---7-7-7---7-7-7---------------------------------|

I   need   you   now; you have faith   but I  know  I won't

0---0---0-0-0-0---0-0---0-0-0-0-|
0---0---0-0-0-0---0-0---0-0-0-0-|
0---0---0-0-0-0---0-0---0-0-0-0-|
2---2---2-2-2-2---2-2---2-2-2-2-|
2---2---2-2-2-2---2-2---2-2-2-2-|
0---0---0-0-0-0---0-0---0-0-0-0-|

    last

Repeat Verse:

Aren't we so tired
Of being so far away
How do we get on
When these f*****s are making our plans

Repeat Chorus

What if I try and stop
I'm responsible for you
Until the anchor breaks

Repeat Refrain

Dear everyone
I've been thinking
I feel misrepresented
Things move too slow
And I want the control of this

Repeat Intro:

Bridge:

-------------------------------------------------------0---------|
-------------------------------------------------------------0---|
-----------------------------------------------------------------|
----2---------2--------4----------4------------------------------|
4-----------4---4-7------------7---7-0---------------------------|
-----------------------------------------------------------------|

---------------------------------------------------------------|
---------------------------------------------------------------|
-------------------------------------------2-p1-h2-p1----------|
----2---------2--------4----------4--------------------2-------|
4-----------4---4-7------------7---7-0-------------------------|
---------------------------------------------------------------|

------------------------------------------------------------|
------------------------------------------------------------|
------------------------------------------------------------|
----2---------2--------4----------4-------------------------|
4-----------4---4-7------------7---7-0----------------------|
------------------------------------------------------------|

------------------------------------------------------------|
------------------------------------------------------------|
------------------------------------------6-/4-------2------|
----2---------2--------4----------4-------------------------|
4-----------4---4-7------------7---7-0----------------------|
------------------------------------------------------------|

0----------------------------0----------0----|
0----------------------------0----------0----|
9----------------------------9----------9----|
9----------------------------9----------6----|
7----------------------------0----------0----|
0----------------------------9----------0----|

     There's gotta   be some kind of way out of here
           When people have you figured out

0----------------------0-----------------------|
0----------------------0-----------------------|
6----------------------4-----------------------|
6----------------------4-----------------------|
4----------------------2-----------------------|
-----------------------------------------------|

    It's a  lie  to only  yourself
Carvings      that       read    (idle will kill)

Chorus:

Refrain:

Goddamn it gets so hard
Not knowing what's going on
And all the while I carry your cross
Who owns these desires
You haven't said a word but I understand

Repeat chords for chorus two times

enjoy!!

            
            
Suggest correction
Creating personal tab
Creating personal tab
You can edit any tab online and save it as your Personal.

You can edit, replace or remove any tab part or add personal notes – all changes will be seen only by you.

Personal tabs can be accessed anytime from any device, even offline.
Learn more »
Give kudos to tab author, rate the tab!
1 2 3 4 5
comments
print report bad tab
guest
You may want to rate the tab now too:
select rating
Wanna post a correction for this tab? Suggest correction