Oops, an error
Loading. Please wait.

This Must Be My Exit Tab

94 views 9 this week
no commentswrite comment
1 2 3 4 5
2 more votes to show rating
add to favorites
launch autoscroll
font size
0
reset
how to read this tab
guitar tuner
Autoscroll
slow
fast
+/-
esc
set tempo
stop
Help us to improve Ultimate-Guitar.com Take our survey!
×
Author
Difficulty
Tuning
intermediate
D# G# C# F# A# D#
This Must Be My Exit by Oso Oso

https://www.youtube.com/watch?v=A3wnCCoTwKY
I think everything is correct, the X-2-1-X-X-X chord at the end of each verse may be wrong.


[Intro]

eb|--X--X--X----X--X----X--X----X----X--X--X--X----X--X--X--X-----|
Bb|--3--3--3----3--3----3--3----3----3--3--3--3----3--3--3--3-----|
Gb|--0--0--0----0--0----0--0----0----0--0--0--0----0--0--0--0-----|
Db|--0--0--0----0--0----0--0----0----0--0--0--0----0--0--0--0-----|   
Ab|--X--X--X----2--2----X--X----X----2--2--2--2----3--3--3--3-----|
Eb|--3--3--3----X--X----2--2----3----X--X--X--X----X--X--X--X-----|(x2)


[Verse 1]

"waking up to your voice, such a pretty noise..."
eb|--X--X--X----X--X----X--X----X----X--X--X--X----X--X--X--X-----|
Bb|--3--3--3----3--3----3--3----3----3--3--3--3----3--3--3--3-----|
Gb|--0--0--0----0--0----0--0----0----0--0--0--0----0--0--0--0-----|
Db|--0--0--0----0--0----0--0----0----0--0--0--0----0--0--0--0-----|
Ab|--X--X--X----2--2----X--X----X----2--2--2--2----3--3--3--3-----|
Eb|--3--3--3----X--X----2--2----3----X--X--X--X----X--X--X--X-----|(x2)

 "I'm the last pick of all your draft picks."
eb|--x--x--x----x--x--x----x--x--x----x--x--x--------|
Bb|--x--x--x----x--x--x----x--x--x----x--x--x--------|
Gb|--x--x--x----x--x--x----x--x--x----x--x--x--------|
Db|--5--5--5----9--9--9----5--5--5----1--1--1--------|
Ab|--7--7--7----5--5--5----3--3--3----2--2--2--------|
Eb|--x--x--x----x--x--x----x--x--x----x--x--x--------|

"lining up my words so they're all cleverly crafted..."      "you, could see right through."
eb|--x--x--x----x--x--x----x--|                          eb|--x---x---x--|
Bb|--x--x--x----x--x--x----x--| Play the last chord      Bb|--x---x---x--|   Play these chords a bunch 
Gb|--x--x--x----x--x--x----x--|  16 times then play      Gb|--x---5---x--|        of times
Db|--5--5--5----9--9--9----5--|                          Db|--5---5---5--|
Ab|--7--7--7----5--5--5----4--|                          Ab|--3---3---3--|
Eb|--x--x--x----x--x--x----x--|                          Eb|--x---x---x--|

eb|--X--X--X----X--X----X--X----X----X--X--X--X----X--X--X--X-----|
Bb|--3--3--3----3--3----3--3----3----3--3--3--3----3--3--3--3-----|
Gb|--0--0--0----0--0----0--0----0----0--0--0--0----0--0--0--0-----|
Db|--0--0--0----0--0----0--0----0----0--0--0--0----0--0--0--0-----|
Ab|--X--X--X----2--2----X--X----X----2--2--2--2----3--3--3--3-----|
Eb|--3--3--3----X--X----2--2----3----X--X--X--X----X--X--X--X-----|(x2)


[Verse 2]

"and she thinks love’s this “sick little disease that attacks you”..."
eb|--X--X--X----X--X----X--X----X----X--X--X--X----X--X--X--X-----|
Bb|--3--3--3----3--3----3--3----3----3--3--3--3----3--3--3--3-----|
Gb|--0--0--0----0--0----0--0----0----0--0--0--0----0--0--0--0-----|
Db|--0--0--0----0--0----0--0----0----0--0--0--0----0--0--0--0-----|
Ab|--X--X--X----2--2----X--X----X----2--2--2--2----3--3--3--3-----|
Eb|--3--3--3----X--X----2--2----3----X--X--X--X----X--X--X--X-----|(x2)

 "with you its so easy to"
eb|--x--x--x----x--x--x----x--x--x----x--x--x--------|
Bb|--x--x--x----x--x--x----x--x--x----x--x--x--------|
Gb|--x--x--x----x--x--x----x--x--x----x--x--x--------|
Db|--5--5--5----9--9--9----5--5--5----1--1--1--------|
Ab|--7--7--7----5--5--5----3--3--3----2--2--2--------|
Eb|--x--x--x----x--x--x----x--x--x----x--x--x--------|

" drop all the things..."                                "oh its fun, never a waste of my time."
eb|--x--x--x----x--x--x----x--|                          eb|--x---x---x--|
Bb|--x--x--x----x--x--x----x--| Play the last chord      Bb|--x---x---x--|   Play these chords a bunch 
Gb|--x--x--x----x--x--x----x--|  16 times then play      Gb|--x---5---x--|        of times
Db|--5--5--5----9--9--9----5--|                          Db|--5---5---5--|
Ab|--7--7--7----5--5--5----4--|                          Ab|--3---3---3--|
Eb|--x--x--x----x--x--x----x--|                          Eb|--x---x---x--|


[Verse 3]

"i want a love where we stop going to church..."
eb|--X--X--X----X--X----X--X----X----X--X--X--X----X--X--X--X-----|
Bb|--3--3--3----3--3----3--3----3----3--3--3--3----3--3--3--3-----|
Gb|--0--0--0----0--0----0--0----0----0--0--0--0----0--0--0--0-----|
Db|--0--0--0----0--0----0--0----0----0--0--0--0----0--0--0--0-----|
Ab|--X--X--X----2--2----X--X----X----2--2--2--2----3--3--3--3-----|
Eb|--3--3--3----X--X----2--2----3----X--X--X--X----X--X--X--X-----|(x2)

   "the sun would creep in through the blinds"
eb|--x--x--x----x--x--x----x--x--x----x--x--x--------|
Bb|--x--x--x----x--x--x----x--x--x----x--x--x--------|
Gb|--x--x--x----x--x--x----x--x--x----x--x--x--------|
Db|--5--5--5----9--9--9----5--5--5----1--1--1--------|
Ab|--7--7--7----5--5--5----3--3--3----2--2--2--------|
Eb|--x--x--x----x--x--x----x--x--x----x--x--x--------|

   "underneath the shades..."                              "... kill the time."
eb|--x--x--x----x--x--x----x--|                          eb|--x---|
Bb|--x--x--x----x--x--x----x--| Play the last chord      Bb|--x---|   Play this chord a bunch 
Gb|--x--x--x----x--x--x----x--|  16 times then play      Gb|--x---|        of times
Db|--5--5--5----9--9--9----5--|                          Db|--5---|
Ab|--7--7--7----5--5--5----4--|                          Ab|--3---|
Eb|--x--x--x----x--x--x----x--|                          Eb|--x---|


[Chorus]

  "but i never really know what you're thinking..."  
eb|--X--X--X----X--X----X--X----|
Bb|--3--3--3----6--6----3--3----|                For the last couple times through
Gb|--0--0--0----0--0----0--0----|               just single strum through the chords
Db|--0--0--0----0--0----0--0----|   
Ab|--X--X--X----6--6----3--3----|
Eb|--3--3--3----X--X----X--X----|(x16)


LYRICS

waking up to your voice, such a pretty noise,couldn't believe you didn't wake up with some other boy. 
I'm the last pick of all your draft picks, lining up my words so they're all cleverly crafted but you, 
you can see right through. 

and she thinks love’s this “sick little disease that attacks you” but i could fall deep in it every day 
if i had to.with you its so easy to drop all the things i had to do, oh its fine, never a waste of my time; 
i want a love where we stop going to church cause its boring, and sleep in on all those Sunday mornings. 
the sun would creep in through the blinds, we would hide, underneath the sheets trying to find, 
one million ways to kill the time. 

but i never really know what you're thinking about,and i know ill never really figure it out, 
and all experience ever does is confirm my doubt,i wasn't convinced that i'd ever really come around. 
and its funny hows life goes, you know? likes there's just shit i don't need anyone to know: 
like, this girl out there, somewhere, i don't know,but i wonder all the time if she ever misses the snow. 

and all these thoughts i cant push out of my mind, like these visions of 100 twisted ways i might die. 
the view from there was kinda nice, action was kinda slow. 

again, these are things i don't need anyone to know..... 

‘i cant believe i thought i was safe in my most crooked shape, most vulnerable place...
and all that time i was hangin’ on your shelf, i was just running away from getting to know myself' "



************************************

| b  Bend
| X  Dead note

************************************
Suggest correction
Give kudos to tab author, rate the tab!
1 2 3 4 5
comments
print report bad tab
guest
You may want to rate the tab now too:
select rating
Wanna post a correction for this tab? Suggest correction