Oops, an error
Loading. Please wait.

Nincs Vlasz tab

version 1
version 1

Whole song

Interactive

by Ossian
95 views 1 this week
no commentswrite comment
1 2 3 4 5
3 more votes to show rating
add to favorites
×
Save as Personal and add changes to this tab that will be seen only by you. Learn more ›
×
You can save this tab as Personal to edit and correct it or add notes. All changes will be seen only by you. Learn more »
launch autoscroll
font size
0
reset
how to read this tab
guitar tuner
edit
Autoscroll
slow
fast
+/-
esc
set tempo
stop
Author
Difficulty
Nincs válasz


Intro
                                                                 
E||---------------------------------|---------------------------|
B||---------------------------------|---------------------------|
G||---------------------------------|---------------------------|
D||----------4----------------------|----------4----------------|
A||---------------5-----------------|-----------------5----4~---|
E||--2-2-2-2----2-----2-2-2-2-2-2-2-|--2-2-2-2----2-2-----------|

                                                          
---------------------------------|-----------------------|
---------------------------------|-----------------------|
---------------------------------|-----------------4/--0-|
----------4----------------------|--4----2----4----4/--0-|
---------------5-----------------|--2----0----2----------|
--2-2-2-2----2-----2-2-2-2-2-2-2-|-----------------------|

                                                              
---------------------------------|---------------------------|
---------------------------------|---------------------------|
---------------------------------|---------------------------|
----------4----------------------|----------4----------------|
---------------5-----------------|-----------------5----4~---|
--2-2-2-2----2-----2-2-2-2-2-2-2-|--2-2-2-2----2-2-----------|

                                                              
---------------------------------|--------------------------||
---------------------------------|--------------------------||
---------------------------------|--------------------------||
----------4----------------------|--9-9-9-9---9-9-9-9-------||
---------------5-----------------|--7-7-7-7---7-7-7-7-------||
--2-2-2-2----2-----2-2-2-2-2-2-2-|--------------------------||



RIFF I. (kíséret)

E||---------------------------------|---------------------------|
B||---------------------------------|---------------------------|
G||---------------------------------|---------------------------|
D||----------4----------------------|----------4----------------|
A||---------------5-----------------|-----------------5----4~---|
E||--2-2-2-2----2-----2-2-2-2-2-2-2-|--2-2-2-2----2-2-----------|


---------------------------------|-------------------------------|
---------------------------------|-------------------------------|
---------------------------------|-------------------------------|
----------4----------------------|--4-4-4-4-4--4-4-4-4-4--4-4-4--|
---------------5-----------------|--2-2-2-2-2--2-2-2-2-2--2-2-2--|
--2-2-2-2----2-----2-2-2-2-2-2-2-|-------------------------------|


---------------------------------|---------------------------|
---------------------------------|---------------------------|
---------------------------------|---------------------------|
----------4----------------------|----------4----------------|
---------------5-----------------|-----------------5----4~---|
--2-2-2-2----2-----2-2-2-2-2-2-2-|--2-2-2-2----2-2-----------|


---------------------------------|-------------------------------||
---------------------------------|-------------------------------||
---------------------------------|-------------------------------||
----------4----------------------|----------2----------2------2--||
---------------5-----------------|--2-2-2-2-2--2-2-2-2-2--2-2-2--||
--2-2-2-2----2-----2-2-2-2-2-2-2-|--0-0-0-0----0-0-0-0----0-0----||



Refrén
                                                             
E||----------------------------|----------------------------|
B||----------------------------|----------------------------|
G||----------------------------|--1--------2-2--2-----------|
D||--4--------5-5--5-----------|--2--------2-2--2-----------|
A||--2--2-2-2-2-2--2--2--2--2--|--2--2-2-2-2-------2--2--2--|
E||----------------------------|----------------------------|

                                                 (2x)
-------------------------------|--------------------||
-------------------------------|--------------------||
-------------4----------4------|--2-----------------||
--4----------2----------2------|--2--------4--------||
--2--2-2-2-2-2--2-2-2-2-2--2-2-|--0--------2--------||
-------------------------------|-----------2--------||



Szóló
                                                                  
E||-------------------|------------------------------------------|
B||-------------------|----5h0-----------------------------------|
G||----4b-------------|--------4h0h4h2h0h4h2h0-------------------|
D||-------------------|------------------------4h2h0-------------|
A||-------------------|------------------------------4h2h0-------|
E||-------------------|------------------------------------3h2h0-|


--------------------|--------------------------|------------------------------|
--------------------|--3----3----3-------------|--17------------17------------|
--------------------|--2----2----2----2--------|------16~---14------16----14--|
--------------------|-----------------2--------|------------------------------|
--------------------|--------------------------|------------------------------|
--0--2--------------|--------------------------|------------------------------|

                                                                         
-------------------------------|----------------------------------------|
-------------------------------|----------------------------------------|
--16----16----16----14/-----9--|----------------------------------------|
-------------------------------|------------------------11~-------11-12-|
-------------------------------|------9h11h12h11h9----x-----------------|
-------------------------------|--12---------------12-------------------|


-----------------------------------------------------------|
----------------------10h12-14~---15--14h12h14h12h10h12h14h|
--9h11h13h11h10h11h13--------------------------------------|
-----------------------------------------------------------|
-----------------------------------------------------------|
-----------------------------------------------------------|


------------------------------------------------------|----------------------|
--15h14h12h10h12--------------------------------------|----------------------|
-----------------13h11h13h11h9h11h9-------9-----------|----------------------|
------------------------------------12h11---11--------|----------------------|
-----------------------------------------------12~----|--11b-----------------|
------------------------------------------------------|----------12~---------|

                                                                          
-------------------------------------|-----------------------------------|
-------------------------------------|-----------------15b-------15~-----|
-------------------------------------|--------14h16h14-------------------|
---------------------------------14--|--16h18----------------------------|
------------12h14h12---17~-----------|-----------------------------------|
--12h14h16---------------------------|-----------------------------------|

                                                                        
-----------------------------------------------------------------------|
-----------------------------------------------------------------------|
--------------------------------------------------------------11-11-11-|
-----------------------------------11-11-11-14-14-14-14-14-14----------|
--9-9-9-11-11-11-11-11-11-12-12-12-------------------------------------|
-----------------------------------------------------------------------|

                                                 
--------------------------------------16b-------|
-----------14-14-14-14-14-14-15-15-15-----------|
--14-14-14--------------------------------------|
------------------------------------------------|
------------------------------------------------|
------------------------------------------------|

(kíséret/gitár 2. indul)                                        
--14h12h9----14h12h9----9h12h14h12h9----14h12h9----9h12h14h12h9h12-|
----------12---------12--------------12---------12-----------------|
-------------------------------------------------------------------|
-------------------------------------------------------------------|
-------------------------------------------------------------------|
-------------------------------------------------------------------|

                                                                    
--------------12h9--------------------------|----------------------|
--12h10----10------12-10-12b--10------------|----------------------|
--------11-----------------------11h9-------|----------------------|
--------------------------------------11----|--9~---------7----9h7-|
-----------------------------------------12-|----------------------|
--------------------------------------------|----------------------|

                                                               
----------------------|--9h10h9-------------------------------|
----------------------|---------12-10-9---9-9h10h9------------|
----------------------|----------------------------11-9-------|
--9b-----9h7h6~-------|---------------------------------12----|
----------------------|---------------------------------------|
----------------------|---------------------------------------|

                                          
-----------------------------------------|
--9h10h9---------------------------------|
---------11-9----------------------------|
--------------12-11-9--------------------|
----------------------12-11-9------------|
------------------------------12-9-10~---|

                                                                             
----------------------------------------|-----------------------------------|
----------------------------------------|---------------------------7~------|
----11----11----11h--9------11h--9------|--11h--9---------------------------|
-----------------------11h9--------11h9-|---------11h9/7--------------------|
----------------------------------------|----------------9h-7---------------|
----------------------------------------|---------------------9h7/5---------|


Szóló II. - gitár 1.
                                                                           
--------------------------|----------------------|------------------------|
--------------------------|----------------------|------------------------|
--7--7-7-7-7--------------|----------------------|--4--4-4-4-3-4~---------|
-------------4~-----------|----------------------|------------------------|
----------------------7-5-|--7--5--7-------------|------------------------|
--------------------------|-------------5~-------|------------------------|

                                                                             
--------------------------|--------------------------|----------------------|
--------------------------|--------------------------|----------------------|
--3--------4--------6-----|--7--7-7-7-7--------------|----------------------|
-----4--4-----4--4-----4--|-------------4~-----------|----------------------|
--------------------------|----------------------7-5-|--7--5--7-------------|
--------------------------|--------------------------|-------------5~-------|

                                                                               
------------------------|--------------------------|--------------------------|
------------------------|--------------------------|--------------------------|
--4--4-3-4-3-4~---------|--3--------4--------6-----|--7--7-7-7-7--------------|
------------------------|-----4--4-----4--4-----4--|-------------4~-----------|
------------------------|--------------------------|----------------------7-5-|
------------------------|--------------------------|--------------------------|

                                                                           
----------------------|------------------------|--------------------------|
----------------------|------------------------|--------------------------|
----------------------|--4--4-4-4-3-4~---------|--3--------4--------6-----|
----------------------|------------------------|-----4--4-----4--4-----4--|
--7--5--7-------------|------------------------|--------------------------|
-------------5~-------|------------------------|--------------------------|

                                                                           
--------------------------|----------------------|------------------------|
--------------------------|----------------------|------------------------|
--7--7-7-7-7--------------|----------------------|--4--4-3-4-3-4~---------|
-------------4~-----------|----------------------|------------------------|
----------------------7-5-|--7--5--7-------------|------------------------|
--------------------------|-------------5~-------|------------------------|

                                                       
--------------------------|--------------------------||
--------------------------|--------------------------||
--3--------4--------6-----|--3--------4--------6-----||
-----4--4-----4--4-----4--|-----4--4-----4--4-----4--||
--------------------------|--------------------------||
--------------------------|--------------------------||


Szóló II. - gitár 2.
                                                                              
E||--------------------------|----------------------|------------------------|
B||--7--7-7-7-7--------------|----------------------|------------------------|
G||-------------7~-------9-7-|--9--7--9-------------|--7--7-7-7-6-7~---------|
D||--------------------------|-------------7~-------|------------------------|
A||--------------------------|----------------------|------------------------|
E||--------------------------|----------------------|------------------------|

                                                                             
--------------------------|--------------------------|----------------------|
--------------------------|--7--7-7-7-7--------------|----------------------|
--6--------7--------9-----|-------------7~-------9-7-|--9--7--9-------------|
-----8--8-----8--8-----8--|--------------------------|-------------7~-------|
--------------------------|--------------------------|----------------------|
--------------------------|--------------------------|----------------------|

                                                                                
------------------------|--------------------------|--------------------------||
------------------------|--------------------------|--------------------------||
--7--7-7-7-6-7~---------|--6--------7--------9-----|--6--------7--------9-----||
------------------------|-----8--8-----8--8-----8--|-----8--8-----8--8-----8--||
------------------------|--------------------------|--------------------------||
------------------------|--------------------------|--------------------------||


Szóló alatti kíséret (a szóló második részétől)
                                                        
E||--------------------------|-------------------------|
B||--------------------------|-------------------------|
G||--------------------------|-------------------------|
D||--------------------------|-------------------------|
A||--------------------------|-------------------------|
E||--0--2--2--0--2--2--0--2--|--0--2--2--0--2--2--0----|

                                                                               
--------------------------|------------------------|--------------------------|
--------------------------|------------------------|--------------------------|
--------------------------|------------------------|--------------------------|
--------------------------|------------------------|--------------------------|
--------------------------|------------------------|--------------------------|
--0--2--2--0--2--2--0--2--|--0--2--2--0--5----4----|--0--2--2--0--2--2--0--2--|

                                                                              
-------------------------|--------------------------|------------------------|
-------------------------|--------------------------|------------------------|
-------------------------|--------------------------|------------------------|
-------------------------|--------------------------|------------------------|
-------------------------|--------------------------|------------------------|
--0--2--2--0--2--2--0----|--0--2--2--0--2--2--0--2--|--0--2--2--0--5----4----|


Szóló II. kíséret - gitár 2.

--------------------------|-------------------------|--------------------------|
--------------------------|-------------------------|--------------------------|
--------------------------|-------------------------|--------------------------|
--------------------------|-------------------------|--------------------------|
--2--2--2--2--2--2--2--2--|-------------0--0--0--0--|--------------------------|
--------------------------|--0--0--0----------------|--3--3--3--3--3--3--3--3--|

                                                                               
-------------------------|--------------------------|-------------------------|
-------------------------|--------------------------|-------------------------|
-------------------------|--------------------------|-------------------------|
-------------------------|--------------------------|-------------------------|
-------------------------|--2--2--2--2--2--2--2--2--|-------------0--0--0--0--|
--2--2--2--2--2--2--2----|--------------------------|--0--0--0----------------|

                                                                                
--------------------------|-------------------------|
--------------------------|-------------------------|
--------------------------|-------------------------|
--------------------------|-------------------------|
--------------------------|-------------------------|
--3--3--3--3--3--3--3--3--|--2--2--2--2--2--2--2----|



Befejezés
                                                                               
E||------------------------|-------------------------|------------------------|
B||------------------------|-------------------------|------------------------|
G||------------------------|-------------------------|------------------------|
D||------------------------|-------------------------|------------------------|
A||--4~------5~------------|--4--4-----3~------------|--4~------5~------------|
E||-------2-------2--2--2--|--------2-------2--2--2--|-------2-------2--2--2--|

                                                                           
-----------------------|------------------------|-------------------------|
-----------------------|------------------------|-------------------------|
-----------------------|------------------------|-------------------------|
-----------------------|------------------------|-------------------------|
--4--4--3--2------2----|--4~------5~------------|--4--4-----3~------------|
--2--2--1--0------0----|-------2-------2--2--2--|--------2-------2--2--2--|

                                                                        
------------------------|-----------------------|---------------------||
------------------------|-----------------------|---------------------||
------------------------|-----------------------|---------------------||
------------------------|-----------------------|---------------------||
--4~------5~------------|--4--4--3--2------2----|--4----4--4----------||
-------2-------2--2--2--|--2--2--1--0------0----|--2----2--2----------||

            
            
Suggest correction
Creating personal tab
Creating personal tab
You can edit any tab online and save it as your Personal.

You can edit, replace or remove any tab part or add personal notes – all changes will be seen only by you.

Personal tabs can be accessed anytime from any device, even offline.
Learn more »
Give kudos to tab author, rate the tab!
1 2 3 4 5
comments
print report bad tab
guest
You may want to rate the tab now too:
select rating
Wanna post a correction for this tab? Suggest correction