Oops, an error
Loading. Please wait.

Defensa De Violeta Parra Tab

86 views 1 this week
no commentswrite comment
1 2 3 4 5
3 more votes to show rating
add to favorites
launch autoscroll
font size
0
reset
how to read this tab
guitar tuner
Autoscroll
slow
fast
+/-
esc
set tempo
stop
Help us to improve Ultimate-Guitar.com Take our survey!
×
NADA QUE DECIR
UN EXELENTE TEMA


 INTRO:

e|--0---0--2---3---0---|-5---5-7--8---5--|
B|----0----------0---0-|---0--------0---0|
G|---------------------|-----------------|
D|--2------1---2---2---|-4-----6--7---4--|
A|---------------------|-----------------|
E|---------------------|-----------------|

                           D(4)(9)
e|-0---0-2--3---0----|-------2-3-2-0---|
B|---0--------0---0--|---3-----------3-|
G|-------------------|-----2-----------|
D|-2-----1--2---2----|-0---------------|
A|-------------------|-----------------|
E|-------------------|-----------------|


e|--0---0--2---3---0---|-5---5-7--8---5---|
B|----0----------0---0-|---0--------0---0-|
G|---------------------|------------------|
D|--2------1---2---2---|-4-----6--7---4---|
A|---------------------|------------------|
E|---------------------|------------------|


e|--3-----3-3-----3-|--2-----2-2-----2-|
B|----0-------0-----|----0-------0-----|
G|------0-------0---|------0-------0---|
D|--2-------2-------|--1-------1-------|
A|------------------|------------------|
E|------------------|------------------|

   e"|--0-----0----------------|"
   B"|----0---------0------0---|"
   G"|------0-----0------0-----|"
   D"|-------------------------|"    ""BIS""
   A"|-------------------------|"
   E"|--0-------3------2-------|"


Em            Am
  Dulce vecina de la verde selva
  Em            D
  Arpillerista azul verde y granate
  Em             Am
  Grande enemiga de la zarzamora
 Em         B7
  Violeta parra

  Has recorrido toda la comarca
  desenterrando cantaros de greda
  y liberando pajaros cautivos
  entre las ramas


 (((Aqui va la parte de la INTRO que
    esta dentro de las "COMILLAS")))


  pero los secretarios no te quieren
  y te sierran la puerta de su casa
  y te declaran una guerra a muerte
  viola doliente

  porque tu no te compras ni te vendes
  porque tu no te vistes de payaso
  porque tu hablas la lengua de la tierra
  viola chilensis


  "INTRO"


  tu corazon se abre cuando quiere
  tu corazon se cierra cuando quiere
  y tu salud navega cuando quiere
  aguas arriba.

  cuando se trata de bailar la cueca
  de tu guitarra no se libra nadie
  hasta los muertos salen a bailar
  cueca valseada


(((Aqui tambien va la parte de la INTRO que
    esta dentro de las "COMILLAS")))


  yo te conozco bien hermana vieja
  norte y sur del pais atormentado
  valparaiso hundido para arriba
  isla de pascua

  que te cuesta mujer arbol florido
  alzate en vuelo y alma de sepulcro
  y has estallar las piedras con tu voz
         B7-Em - G - D/F# - E
  Violeta parra


  comentarios y peticiones a mi correo trovaroko@
  Los Andes Cuna De Trovadores
Suggest correction
Give kudos to tab author, rate the tab!
1 2 3 4 5
comments
print report bad tab
guest
You may want to rate the tab now too:
select rating
Wanna post a correction for this tab? Suggest correction