Oops, an error
Loading. Please wait.

Valparaiso Tab

308 views 3 this week
no commentswrite comment
1 2 3 4 5
2 more votes to show rating
add to favorites
launch autoscroll
font size
0
reset
how to read this tab
guitar tuner
Autoscroll
slow
fast
+/-
esc
set tempo
stop
Help us to improve Ultimate-Guitar.com Take our survey!
×
SITUAR CEJILLO EN EL 4º Traste

(en la intro marcar bien los bajos)


INTRO


PARTE 1

 C                     E            Am                    E
-0----0----0-----0-------------0--------0----------------------0---
----1---1----1-----3-1-----0--0--0-----1-1--------1-----------0--0-
---0-----0-----0----------1--1----1---2---2--2-0-0---0-0-0---1----1
----------------------------2--------------------------------------
-3---------3------------------------0-------0-2-3---3-2-3----------
-----------------------0----------------------------------0--------
 C                   G            Am       E       Am    E Am
-0---0---0-----------3-------3--------0--------0-------------
---1---1---3-1-0-1-0---0----0-0------1--1-----0-0-----1------
----0---0---------------0--0---0---2-----2---1---1---2-------
----------------------------------------------------2--------
-3--------------------------------0----------------0-------0-
--------------------------3----------------0-------------0---


    PARTE 2

   Am    Am           E             C               G
  --------------------0-------0-----0--0---------------3----------
  -1p0-1-1-1p0-1-0-1-3-0-----0--0----1---1------------0-0---------
  -----2-2-2---2------------1----1----0---0--0--0-0--0---0-0--0-0-
  -----------------------2------------------2----0--------0----0--
  -----0-------0--------------------3----------3------------------
  -------------------------0------------------------3--------3----


 F       A7      Dm                    G7             C      E
----2-------0--------0-----1J0-----------1-1-----1-------0---------
---2-2-----2--2-----3--3-------3-----0---0-0----0-0-----1-1----0-0-
--3---3---0----0---2-----2-------2--2----0-0---0---0---0---0---1-1-
-4---------------0-----------------0----------0-----0--------2-2-2-
---------0--------------------------------------------3------------
---------------------------------------3---------------------0-----


PARTE 3

Am               E          Am      E     Am    E Am
-0--0--0---0------------0------0------0-------------0-
--1--1--1---3-1-0--0---0-0----1-1----0-0----1-------1-
---2--2--2-------1----1---1--2---2--1---1--2--------2-
---------------------2--------------------------------
-0-----0--------------------0-------------0-------0---
----------------0------------------0------------0-----


C                        E
Yo no he sabido de su historia,                     ( G7 320001  )
  C                     G
un día nace allí, sencillamente.
     F          A7         Dm
El viejo puerto vigiló mi infancia
   G7               C   E
con rostro de fría indiferencia.
    F           A7         Dm
Porque no nací pobre y siempre tuve
    G7                  C   E
un miedo inconcebible a la pobreza


INTRO (SOLO PARTE 3)

  C                        E
Yo les quiero contar lo que he observado
  C                       G
para que lo vayamos conociendo.
  F             A7         Dm
El habitante encadenó las calles
   G7                 C     E
la lluvia destiñó las escaleras
    F           A7         Dm
un manto de tristezas fue cubriendo
   G7                  C     E
los cerros con sus calles y sus niños.


INTRO (SOLO PARTE 3)


   C                       E
Y vino el temporal y la llovizna
 C                          G
con su carga de arena y desperdicio.
   F              A7        Dm
Por ahí paso la muerte tantas veces
    G7                  C   E
la muerte que enlutó a Valparaíso
    F          A7        Dm
y una vez más el viento como siempre
   G7                  C   E
limpió la cara de este puerto herido.


INTRO (SOLO PARTE 3)


 C                           E
Pero este puerto amarra como el hambre,
  C                         G
no se puede vivir sin conocerlo,
F                A7         Dm
no se puede dejar sin que nos falte,
      G7                  C   E
la brea, el viento sur, los volantines,
  F           A7         Dm
el pescador de jaivas que entristece
  G7                 C    E
nuestro paisaje de la costanera.


Am                        E
Yo no he sabido de su historia,
  C                      G
un día nace allí, sencillamente.
     F          A7         Dm
El viejo puerto vigiló mi infancia
   G7                  C   E
con rostro de fría indiferencia.
    F           A7         Dm
Porque no nací pobre y siempre tuve
    G7                 C   E
un miedo inconcebible a la pobreza.


INTRO (SOLO PARTE 3) , (hASTA el 3º Am (solo el bajo))


FIN

saludos

temuco , chile
Suggest correction
Give kudos to tab author, rate the tab!
1 2 3 4 5
comments
print report bad tab
guest
You may want to rate the tab now too:
select rating
Wanna post a correction for this tab? Suggest correction