Oops, an error
Loading. Please wait.

Invisible intro tab

version 1
version 1

Intro

Whole song

by Otep
2,822 views 1 this week
4 commentsread comments
1 2 3 4 5
x 3
add to favorites
×
Save as Personal and add changes to this tab that will be seen only by you. Learn more ›
×
You can save this tab as Personal to edit and correct it or add notes. All changes will be seen only by you. Learn more »
launch autoscroll
font size
0
reset
how to read this tab
guitar tuner
edit
Autoscroll
slow
fast
+/-
esc
set tempo
stop
Band: Otep
Song: Invisible
CD:   The Ascension
Year: 2007
Tune: CGCFAD

##########################
h    hammer on
p    pull off
##########################

Intro/Verse: (play clean)
(For the intro, hit the 13th fret on the
 A string and slowly roll the volume up)
D-----------0h1p0---0-----3------0h1p0----|
A-------3---------3-----3------3----------|
F---------2-----------2------2------------|
C-----0-----------------------------------|
G-----------------------------------------|
C---0-------------------------------------|

            
            
Suggest correction
Creating personal tab
Creating personal tab
You can edit any tab online and save it as your Personal.

You can edit, replace or remove any tab part or add personal notes – all changes will be seen only by you.

Personal tabs can be accessed anytime from any device, even offline.
Learn more »
Give kudos to tab author, rate the tab!
1 2 3 4 5
comments
print report bad tab
4 comments total. Showing first comments.
0 reply
ZeroReaper 10 Apr 12, 2008 11:57 AM

great tab 5 stars can u tab out the rest of the song?

0 reply
Kreuger 802 Apr 13, 2008 06:10 PM

I've tried but it's unclear to me. I don't have the best ear. That was purely luck when I figured that out and Im not even positive that's right. Thanks though

0 reply
Ducky-Kun 10 May 18, 2008 12:38 AM

D-----------0h1p0---0-----3------0h1p0----|
A-------3---------3-----3------3----------|
F---------2-----------3------2------------|
C-----0-----------------------------------|
G-----------------------------------------|
C---0-------------------------------------| sounds better, so you're pretty accurate =)

guest
You may want to rate the tab now too:
select rating
Wanna post a correction for this tab? Suggest correction