Oops, an error
Loading. Please wait.

Warhead tab

version 2
version 2

Whole song

Interactive

by Otep
1,006 views 1 this week
no commentswrite comment
1 2 3 4 5
x 4
add to favorites
×
Save as Personal and add changes to this tab that will be seen only by you. Learn more ›
×
You can save this tab as Personal to edit and correct it or add notes. All changes will be seen only by you. Learn more »
launch autoscroll
font size
0
reset
how to read this tab
guitar tuner
edit
Autoscroll
slow
fast
+/-
esc
set tempo
stop
Well this tab is a little lammy (yeah, it's my first), 'cause I didn't tuned my guitar
in drop A#, it's in drop C, but it sounds fine. The riffs are in order, except for the
second verse, but you can figure it out, just listen to the song.
D|-------------------------------------------------------| \
A|-------------------------------------------------------|  |
F|-------------------------------------------------------|  |
C|-------------------------------------------------------|  |
G|-------------------------------------------------------|  |
C|-0-0-0-3-3-3-1-1-1-11-11-11-0-0-0-3-3-3-1-1-1-11-11-11-|  |
                                                             > 2X
D|-------------------------------------------------------|  |
A|-------------------------------------------------------|  |
F|-------------------------------------------------------|  |
C|-------------------------------------------------------|  |
G|-------------------------------------------------------|  |
C|-0-0-0-3-3-3-1-1-1-10-10-10-0-0-0-3-3-3-1-1-1-10-10-10-| /


D|-----------------------------------------------------------|
A|-----------------------------------------------------------|
F|-----------------------------------------------------------|
C|-----------------------------------------------------------|  2X
G|-0--3--1--11--0--3--1--11--0-0-3-3-1-1-0-0-0-0-3-3-1-1-0-0-|
C|-0--3--1--11--0--3--1--11--0-0-3-3-1-1-0-0-0-0-3-3-1-1-0-0-|
PM                           - - - - - - - - - - - - - - - -

D|-------------------------------------------------------------------|
A|-------------------------------------------------------------------|
F|-------------------------------------------------------------------|
C|-------------11---------------11---------------10---------------10-| 2X
G|-0-0-3-3-1-1-11---0-0-3-3-1-1-11---0-0-3-3-1-1-10---0-0-3-3-1-1-10-|
C|-0-0-3-3-1-1-11---0-0-3-3-1-1-11---0-0-3-3-1-1-10---0-0-3-3-1-1-10-|
PM - - - - - -      - - - - - -      - - - - - -      - - - - - - 

D|-------------------------------------------------------|
A|-------------------------------------------------------|
F|-------------------------------------------------------|
C|-------------------------------------------------------|
G|-------------------------------------------------------|
C|-0-0-0-3-3-3-1-1-1-11-11-11-0-0-0-3-3-3-1-1-1-11-11-11-| 
PM - - - - - - - - - -- -- -- - - - - - - - - - -- -- --

D|-------------------------------------------------------|
A|-------------------------------------------------------|
F|-------------------------------------------------------|
C|-------------------------------------------------------|
G|-------------------------------------------------------|
C|-0-0-0-3-3-3-1-1-1-10-10-10-0-0-0-3-3-3-1-1-1-10-10-10-|
PM - - - - - - - - - -- -- -- - - - - - - - - - -- -- --

D|----------------------------|
A|----------------------------|
F|----------------------------|
C|-0-0-0-3-0-3--0-0-0-3-0-3---|
G|-0-0-0-3-0-3--0-0-0-3-0-3---|
C|-0-0-0-3-0-3--0-0-0-3-0-3---|
PM - - -   -    - - -   -

D|-------------------------------------------------------|
A|-------------------------------------------------------|
F|-------------------------------------------------------|
C|-------------------------------------------------------|
G|-------------------------------------------------------|
C|-0-0-0-3-3-3-1-1-1-11-11-11-0-0-0-3-3-3-1-1-1-11-11-11-| 
PM - - - - - - - - - -- -- -- - - - - - - - - - -- -- --

D|-------------------------------------------------------|
A|-------------------------------------------------------|
F|-------------------------------------------------------|
C|-------------------------------------------------------|
G|-------------------------------------------------------|
C|-0-0-0-3-3-3-1-1-1-10-10-10-0-0-0-3-3-3-1-1-1-10-10-10-|
PM - - - - - - - - - -- -- -- - - - - - - - - - -- -- --

D|----------------------------|
A|----------------------------|
F|----------------------------|
C|-0-0-0-3-0-3--0-0-0-3-0-3---|
G|-0-0-0-3-0-3--0-0-0-3-0-3---|
C|-0-0-0-3-0-3--0-0-0-3-0-3---|
PM - - -   -    - - -   -

D|-------------------------------------------------|
A|-------------------------------------------------|
F|-------------------------------------------------|
C|-3-2-7-6-0-0-0-0-0-0-0-0-3-2-7-6-0-0-0-0-0-0-0-0-| 2X
G|-3-2-7-6-0-0-0-0-0-0-0-0-3-2-7-6-0-0-0-0-0-0-0-0-|
C|-3-2-7-6-0-0-0-0-0-0-0-0-3-2-7-6-0-0-0-0-0-0-0-0-|
PM         - - - - - - - -         - - - - - - - -

D|--------------|
A|--------------|
F|--------------|
C|--3--3--2--2--|
G|--3--3--2--2--|
C|--3--3--2--2--|

Do the whole thing again.. listen the song for order

The elephants march to war.. (slowing down gradually)
D|-------------------------------------------------------------|
A|-------------------------------------------------------------|
F|-------------------------------------------------------------|
C|-0h3--2--0--2--0-0-0-0-0-0-0-0-0h3--2--0--2--0-0-0-0-0-0-0-0-| 2X
G|-0h3--2--0--2--0-0-0-0-0-0-0-0-0h3--2--0--2--0-0-0-0-0-0-0-0-|
C|-0h3--2--0--2--0-0-0-0-0-0-0-0-0h3--2--0--2--0-0-0-0-0-0-0-0-|
PM               - - - - - - - -                - - - - - - - -

D|--------------------------------------------------------|
A|--------------------------------------------------------|
F|--------------------------------------------------------|
C|-3--2--7--6-0-0----0-0-0--0-3--2--7--6--0-0----0-0-0--0-| 2X
G|-3--2--7--6-0-0----0-0-0--0-3--2--7--6--0-0----0-0-0--0-|
C|-3--2--7--6-0-0----0-0-0--0-3--2--7--6--0-0----0-0-0--0-|
PM            - -    - - -  -             - -    - - -  - 

  join me....                     in the warhead...
D|---------------------------------------------------------------|
A|---------------------------------------------------------------|
F|---------------------------------------------------------------|
C|-3-3-2-2-7-7-6-6-0-0---0-0-0--0-3-3-2-2-7-7-6-6-0-0---0-0-0--0-|
G|-3-3-2-2-7-7-6-6-0-0---0-0-0--0-3-3-2-2-7-7-6-6-0-0---0-0-0--0-|
C|-3-3-2-2-7-7-6-6-0-0---0-0-0--0-3-3-2-2-7-7-6-6-0-0---0-0-0--0-|
PM - - - - - - - - - -   - - -  - - - - - - - - - - -   - - -  -

D|---------------------------------------------------------|
A|---------------------------------------------------------|
F|---------------------------------------------------------|
C|-3--2--7--6--0-0-0-0-0-0-0-0-3--2--7--6--0-0-0-0-0-0-0-0-| 2X
G|-3--2--7--6--0-0-0-0-0-0-0-0-3--2--7--6--0-0-0-0-0-0-0-0-|
C|-3--2--7--6--0-0-0-0-0-0-0-0-3--2--7--6--0-0-0-0-0-0-0-0-|
PM             - - - - - - - -             - - - - - - - -

D|-------------------------------------------------------------|
A|-------------------------------------------------------------|
F|-------------------------------------------------------------|
C|-0h3--2--0--2--0-0-0-0-0-0-0-0-0h3--2--0--2--0-0-0-0-0-0-0-0-| 2X
G|-0h3--2--0--2--0-0-0-0-0-0-0-0-0h3--2--0--2--0-0-0-0-0-0-0-0-|
C|-0h3--2--0--2--0-0-0-0-0-0-0-0-0h3--2--0--2--0-0-0-0-0-0-0-0-|
PM               - - - - - - - -                - - - - - - - -

D|---------------------------------------------------------|
A|---------------------------------------------------------|
F|---------------------------------------------------------|
C|-3--2--7--6--0-0-0-0-0-0-0-0-3--2--7--6--0-0-0-0-0-0-0-0-| 2X
G|-3--2--7--6--0-0-0-0-0-0-0-0-3--2--7--6--0-0-0-0-0-0-0-0-|
C|-3--2--7--6--0-0-0-0-0-0-0-0-3--2--7--6--0-0-0-0-0-0-0-0-|
PM             - - - - - - - -             - - - - - - - -

..they get me!
D|---------------------------------|
A|---------------------------------|
F|---------------------------------|
C|-3p2-3p2-2h3-3p2-2h3-0-0---0-0-0-| 6X ( that was the closest I got)
G|-3p2-3p2-2h3-3p2-2h3-0-0---0-0-0-|
C|-3p2-3p2-2h3-3p2-2h3-0-0---0-0-0-|
PM                     - -   - - -

D|--------------------|
A|--------------------|
F|--------------------|
C|-2-3-2-3-2-3-2-3-2--|
G|-2-3-2-3-2-3-2-3-2--|
C|-2-3-2-3-2-3-2-3-2--|
Suggest correction
Creating personal tab
Creating personal tab
You can edit any tab online and save it as your Personal.

You can edit, replace or remove any tab part or add personal notes – all changes will be seen only by you.

Personal tabs can be accessed anytime from any device, even offline.
Learn more »
comments
print report bad tab
guest
You may want to rate the tab now too:
select rating
Wanna post a correction for this tab? Suggest correction