Oops, an error
Loading. Please wait.

Black Tables chords

1,570 views 12 this week
1 commentread comment
1 2 3 4 5
x 3
add to favorites
×
Save as Personal and add changes to this tab that will be seen only by you. Learn more ›
×
You can save this tab as Personal to edit and correct it or add notes. All changes will be seen only by you. Learn more »
launch autoscroll
font size
0
reset
transpose
0
reset
simplify chords
display chords
guitar tuner
edit
Autoscroll
slow
fast
+/-
esc
set tempo
stop
Author
Difficulty
Unregistered
intermediate
Strumming
There is no strumming pattern for this song yet. and get +5 IQ
Video https://www.youtube.com/watch?v=XHxTC2NVYaE&list=RDyiVhbLcUPos&index=2

No Capo

[Intro]

        
e|-2-2-2-2-5--------|-2-2-2-2-5--------|-4-4-4-5-4--------|-4-4-4-5-4--------|
B|----------3-3-2---|-----------3-3-2--|-----------2------|-----------3-2----|
G|------------------|------------------|------------------|------------------|   
D|------------------|------------------|------------------|------------------|
A|------------------|------------------|------------------|------------------|
E|------------------|------------------|------------------|------------------|


   
e|-2-2-2-2-5--------|-2-2-2-2-5--------|-4-4-4-5-4--------|-4-2-4------------|
B|----------3-3-2---|-----------3-3-2--|-----------2------|------------------|
G|------------------|------------------|------------------|------------------|   
D|------------------|------------------|------------------|------------------|
A|------------------|------------------|------------------|------------------|
E|------------------|------------------|------------------|------------------|


[Verse]

F#m                               C#m                    
When the whites of your eyes come through
         Bm7  A           Bm7                             
You will see   something new
F#m                        C#m                                                      
With your body and mind restored
             Bm7  A         Bm7                            
It's good to see   you back home


[Instrumental]
 
F#m   C#m   F#m   A  Asus4   E


e|-2-2-2-2-5--------|-2-2-2-2-5--------|-4-4-4-5-4--------|-4-2-4------------|
B|----------3-3-2---|-----------3-3-2--|-----------2------|------------------|
G|------------------|------------------|------------------|------------------|   
D|------------------|------------------|------------------|------------------|
A|------------------|------------------|------------------|------------------|
E|------------------|------------------|------------------|------------------|


[Verse]

F#m                               C#m                                                      
When the life in your eyes wants black
          Bm7     A                                          
Things return
            Bm7                                      
You've come back
F#m                        C#m                                                        
With your body and mind restored
              Bm7  A           Bm7         Bm            
It's good to see     you once more
                                                   

[Instrumental]
 
F#m   C#m   F#m   A  Asus4   E


[Chorus]

Bm7               A                                                                                      
Turning black tables  
           E               A                                        
And you're turning black tables
            Bm7              F#m                        
And you're making your head whirl
A                E                                  
Making your head whirl
            Bm7              A                          
And you're turning black tables
           E               A                          
And you're turning black tables
            Bm7              F#m                                                       
And you're making your head whirl
A                E                                                   
Making your head whirl


[Outro]

G A Bm  C#     G      F# 
G A Bm  C#     G      F# 
G A Bm  C#     G      F# 
G A Bm  C#     G                                                       

            
            
Suggest correction
Creating personal tab
Creating personal tab
You can edit any tab online and save it as your Personal.

You can edit, replace or remove any tab part or add personal notes – all changes will be seen only by you.

Personal tabs can be accessed anytime from any device, even offline.
Learn more »
Give kudos to tab author, rate the tab!
1 2 3 4 5
comments
print report bad tab
1 comment total.
+1 reply
schoben 3,352 Jun 27, 2016 02:32 AM

Very emotional song. Perfect Tab!

guest
Wanna post a correction for this tab? Suggest correction