Oops, an error
Loading. Please wait.

I Cant Turn You Loose Bass Tab

version 1
version 1

Whole song

Interactive

8,896 views 15 this week
2 commentsread comments
1 2 3 4 5
excellent!
x 6
add to favorites
launch autoscroll
font size
0
reset
guitar tuner
Tab Pro tools
  • play this tab
  • loop segment
  • change instrument
  • show fretboard
  • metronome
×
Best way to learn
"I Cant Turn You Loose"
Autoscroll
slow
fast
+/-
esc
set tempo
stop
Contributor
Otis Redding- I can't turn you loose

Tabbed by- Ryan
Email- ryanwrightiscool@yahoo.com

Standard tuning

INTRO
G-----------------03-20----------------------|
D---------------2------1---------------------|
A--30-3---0-0-3------------------------------|
E----3-----3---------------------------------|


PART 1
G----------------------------------------------|
D----------------------------------------------|
A---30-3--0-0----------------------------------|
E-----3----3-----------------------------------|


PART 2
G--------------------------------------------------|
D----30-3--0-0-------------------------------------|
A------3----3--------------------------------------|
E--------------------------------------------------|


PART 3
G-----------------------------------------------|
D---5--5----------------------------------------|
A----75---757-----------------------------------|
E-----------------------------------------------|

PART 4
G--------------------------------------------|
D---0-2-3-4-5--------------------------------|
A--------------------------------------------|
E--------------------------------------------|
comments
print report bad tab
2 comments total.
0 reply
Moozman13 wrote on August 19 2015, 07:42 pm

good job

0 reply
powerhut wrote on August 26 2015, 12:49 am

Excellent, Thank you

I want to post or [tab]
guest
You may want to rate the tab now too:
select rating
Please do not post tabs as comments. Select "correction" instead!