Oops, an error
Loading. Please wait.

Knock On Wood Bass Tab

version 1
version 1

Whole song

6,240 views 1 this week
no commentswrite comment
1 2 3 4 5
2 more votes to show rating
add to favorites
launch autoscroll
font size
0
reset
guitar tuner
Autoscroll
slow
fast
+/-
esc
set tempo
stop
Help us to improve Ultimate-Guitar.com Take our survey!
×
So, it's the very famous song of Otis Redding : Knock on Wood.
I don't write the little variations, only the basic tab :

Intro & Chorus :

    G   |-----------222222244444447---4444444-|
    D   |22222225-----------------------------|
    A   |-------------------------------------|
    E   |-------------------------------------|

And sometimes he plays in the end :

    G   |-7--4--2-------|
    D   |----------5----|
    A   |---------------|
    E   |---------------|

Then, verse A :

    G   |----11-------|
    D   |-------14-11-|
    A   |-12----------|
    E   |-------------|

Verse B :

    G   |-------------|
    D   |----11-------|
    A   |-------14-11-|
    E   |-12----------|

Bridge :

    G   |----------------------------|
    D   |----------------------------|
    A   |------------------------3-2-|
    E   |222222224444444455555555----|

Outro : Verse A, Verse B, Verse A, Verse B, 'till the end.

So, this is my first tab. Sorry for the mistakes of language, i'm french ^^
Please rate ! And good luck !
Suggest correction
Give kudos to tab author, rate the tab!
1 2 3 4 5
comments
print report bad tab
guest
You may want to rate the tab now too:
select rating
Wanna post a correction for this tab? Suggest correction