Oops, an error
Loading. Please wait.

Sittin On The Dock Of The Bay Bass Tab

version 1
version 1

Interactive

33,105 views 108 this week
no commentswrite comment
1 2 3 4 5
x 7
add to favorites
launch autoscroll
font size
0
reset
guitar tuner
Autoscroll
slow
fast
+/-
esc
set tempo
stop
Help us to improve Ultimate-Guitar.com Take our survey!
×
Author
Difficulty
intermediate
(Sittin'On) The Dock of the Bay - Otis Redding
Tabbed By : Primordiale
e-mail: ilprimordiale@gmail.com
Tuning: Standard Tuning EADG
        
[Intro]
G|------------------------|
D|------------------------|
A|------------/5----/5----|
E|--3------3--------------|
        
[Verse]
G|------------------------|-----------------------|
D|------------------------|-------4-------4-------|
A|-------5-------------2--|--L---------2-------2--|
E|--3---------3--0--3-----|-----------------------|

G|------------------------|------------------------|
D|-------5----------------|------------------------|
A|--3---------3--2--1--0--|--L---------0-----------|
E|------------------------|-------0-------0--1--2--|
        
[Chorus]
G|-----------------------|-------------------|
D|-----------------0--2--|--L----------------|
A|--------------2--------|-------------------|
E|--3--------3-----------|-------------------|

G|-----------------------|-------------------|
D|-----------------0--2--|--L----------------|
A|--------------2--------|-------------------|
E|--3--------3-----------|-------------------|

G|-----------------------|-----------------------|
D|-----------------------|------------/2----/2---|
A|------------/5----/5---|--0------0-------------|
E|--3------3-------------|-----------------------|

G|------------------------|----------------------|
D|------------------------|--2-------------------|
A|------------/5----/5----|----------------------|
E|--3------3--------------|----------------------|

[Middle]
G|--0------------------|-----------------------|-----------------------|
D|-----------0---------|--------------2--3--4--|--5----0--5--0---------|
A|------------------3--|--L--------3-----------|--------------------3--|
E|---------------------|-----------------------|-----------------------|

G|-------------------------|-----------------------|-----------------------|
D|--------5-------2--3--4--|--5------5--0----0--0--|------------5----0--5--|
A|--L--3-------3-----------|-----------------------|--3------3-------------|
E|-------------------------|-----------------------|-----------------------|

G|--------------------|------------------------|
D|--3-----------------|--/0--------0--0--0\----|
A|--------------------|------------------------|
E|-------1------------|------------------------|

[End]
G|------------------------|------------------------|------------/4----/4----|
D|------------/0----/0----|------------/0----/0----|--2------2--------------|
A|------------------------|------------------------|------------------------|
E|--3------3--------------|--3------3--------------|------------------------|

[Other]
[Intro] x4
[Verse] x2
[Chorus]
[Verse] x2
[Chorus]
[Middle]
[Verse] x2
[Chorus]
[End] x4x

************************************

| /  Slide up
| \  Slide down

************************************
Suggest correction
comments
print report bad tab
guest
You may want to rate the tab now too:
select rating
Wanna post a correction for this tab? Suggest correction