Oops, an error
Loading. Please wait.

Sittin On The Dock Of The Bay Bass Tab

version 2
version 2

Interactive

2,348 views 1 this week
no commentswrite comment
1 2 3 4 5
3 more votes to show rating
add to favorites
launch autoscroll
font size
0
reset
guitar tuner
Autoscroll
slow
fast
+/-
esc
set tempo
stop
Help us to improve Ultimate-Guitar.com Take our survey!
×
Author
Difficulty
Listen for the timing. I am sure it is 99.9% right. It moves kind of fast at 
times, but it still leaves room to play with.


Intro:	x4
G|-------------|
D|-------------|
A|-----3/5-3/5-|
E|-3--3--------|

Verse:	x2
|---------------------------------------|
|-------------4---4-----5---------2---2-|
|---5---5-0-2---2---2-3---3-2-1-0---0---|
|-3---3---------------------------------|

Chorus:
|------------|------------|
|------------|------------|
|------5-----|------5-----|
|-3--3---5-0-|-3--3---5-0-|

|---------------------------------------|
|---------------------------------------|
|-----3/5-3/5-----5/7-5/7-----3/5-3/5---|
|-3--3--------5--5--------3--3--------0-|

Verse: x2
Chorus:

Bridge	x2
|------------------|------------------|
|----------2-3-4-5-|----------2-3-4-5-|
|----5--3----------|----5--3----------|
|-3----------------|-3----------------|

|-----------------------------------------|
|----------5--3-3-3-3-3-3-3-0-0-0-0-------|
|----5--3---------------------------3-2-0-|
|-3---------------------------------------|

Verse: x2
Chorus:
Intro: x3

Outro:
|-----3/4-3/4-|
|-2--2--------|
|-------------|
|-------------|
Intro: x3
Outro:
Suggest correction
Give kudos to tab author, rate the tab!
1 2 3 4 5
comments
print report bad tab
guest
You may want to rate the tab now too:
select rating
Wanna post a correction for this tab? Suggest correction