Oops, an error
Loading. Please wait.

Sittin On The Dock Of The Bay Bass Tab

version 5
version 5

Interactive

1,713 views 3 this week
1 commentread comment
1 2 3 4 5
please rate
add to favorites
launch autoscroll
font size
0
reset
guitar tuner
Autoscroll
slow
fast
+/-
esc
set tempo
stop
Help us to improve Ultimate-Guitar.com Take our survey!
×
Author
Difficulty
intermediate
---------------------------------------------------------------------------
Sitting on the Dock of the Bay  - Otis Redding
---------------------------------------------------------------------------
Tabbed by: FunkyLaura100
Tuning: Standard 

Intro (repeat with fade for outro) 

G|-----------|---------|---------|-----------|
D|-----------|---------|---------|-----------|
A|------5-5--|-----5-5-|-----5-5-|-----5-5---|
E|--3-3------|-3-3-----|-3-3-----|-3-3-------|

Verse
G|-------------|-------------|----------------|--------------|
D|-------------|-4-------4---|---5------------|--------------|
A|---5------012|---x-x-2---2-|-3---33-3-2-1-0-|--------------|
E|--3--xx-3----|-------------|----------------|-55-0--5-5----|

G|-------------|-------------|----------------|--------------|
D|-------------|-4-------4---|---5------------|--------------|
A|---5------012|---x-x-2---2-|-3---33-3-2-1-0-|--------------|
E|--3--xx-3----|-------------|----------------|-55-0--5-5----|

Chorus
G|--------------|-------------|-------------|--------------|
D|--------------|-7-----------|-------------|--------------|
A|----------2-5/|-------------|--------2-5-/|-7------------|
E|--3--xx-3-----|-------------|-3-xx-3------|--------------|

G|----------|---------|----------|-----------|
D|----------|---------|----------|-----------|
A|------5-5-|-----7-7-|-----5-5/-|-7---------|
E|--3-3-----|-5-5-----|-3-3------|-----------|

Long Note Section
G|-----------|---------|--------|---------|
D|-5---------|---234---|-5------|---234---|
A|---5-3-----|--3------|---5-3--|-3-------|
E|-----------|---------|--------|---------|

G|-----------|---------|--------|---------|
D|-5---------|---234---|-5------|---234---|
A|---5-3-----|--3------|---5-3--|-3-------|
E|-----------|---------|--------|---------|

G|-----------|---------|--------|---------|
D|-5---------|---234---|-5------|-----5---|
A|---5-3-----|--3------|---5-3--|-3-------|
E|-----------|---------|--------|---------|


Pattern; intro, verse, chorus, verse, chorus, long notes, verse, chorus, outro


| /  slide up
| \  slide down
| h  hammer-on
| p  pull-off
| ~  vibrato
| +  harmonic
| x  Mute note
Suggest correction
Give kudos to tab author, rate the tab!
1 2 3 4 5
comments
print report bad tab
1 comment total.
0 reply
dolson128 2,198 wrote on June 5 2014, 01:02 pm

Great tab! There may be some 3h5's in the intro/outro (instead of just 5 on the A). Sounds good either way.

guest
You may want to rate the tab now too:
select rating
Wanna post a correction for this tab? Suggest correction