Oops, an error
Loading. Please wait.

All Your Love I Miss Loving Tab

28 views 6 this week
no commentswrite comment
1 2 3 4 5
3 more votes to show rating
add to favorites
launch autoscroll
font size
0
reset
how to read this tab
guitar tuner
Autoscroll
slow
fast
+/-
esc
set tempo
stop
Help us to improve Ultimate-Guitar.com Take our survey!
×
Author
Difficulty
intermediate
Otis Rush - All Your Love (I Miss Loving)
All Your Love (I Miss Loving) Single 1958

[Intro] 
e|---------------|---------------|---------------|--------------|----------------|
b|---------------|---------------|---------------|--------------|----------------|
g|-/16-4BP2------|-2B------------|---------------|-2B-----------|-/14-4BP2-------|
d|----------4-4--|---------------|-------2-4-4-4-|--------------|----------4-----|
a|---------------|---------------|-2H4-4---------|--------------|----------------|
e|---------------|---------------|---------------|--------------|----------------|
                  F@m

e|---------------|---------------|---------------|--------------|----------------|
b|---------------|---------------|---------------|--------------|-----5----------|
g|-2H4-----------|---------2-----|-4BP2----------|---------2----|-4/6------------|
d|---------------|-----2-4---4---|---------------|-----2H4------|----------------|
a|---------------|-2H4-----------|---------------|-2H4----------|----------------|
e|---------------|---------------|---------------|--------------|----------------|
  Bm                              F@m                            C@m

e|---------------|---------------|--------------||-------------------------------|
b|---------------|---------------|--------------||-------------------------------|
g|---------------|---------------|--------------||-------------------------------|
d|-------2-------|---------------|--------------||-------------------------------|
a|-2-2-2---4-2-0-|---------0-----|--------------||-------------------------------|
e|---------------|-2-2-2-2---2-0-|-2------------||-------------------------------|
  Bm              F@m

[Verses] 
e|---------------|---------------|---------------|---------------|---------------|
b|---------------|---------------|---------------|---------------|---------------|
g|---------------|---------------|---------------|---------------|---------------|
d|---------------|---------------|---------------|---------------|---------0-----|
a|---------0-----|---------0-----|---------0-----|---------0---0-|-2-2-2-2---2-0-|
e|-2-2-2-2---2-0-|-2-2-2-2---2-0-|-2-2-2-2---2-0-|-2-2-2-2---2---|---------------|
  F@m                                                             Bm

e|---------------|---------------|---------------|---------------|---------------|
b|---------------|---------------|---------------|---------------|---------------|
g|---------------|---------------|---------------|---------------|---------------|
d|---------0-----|---------------|---------------|---------2-----|---------0-----|
a|-2-2-2-2---2-0-|---------0-----|---------0---0-|-4-4-4-4---4-2-|-2-2-2-2---2-0-|
e|---------------|-2-2-2-2---2-0-|-2-2-2-2---2---|---------------|---------------|
                  F@m                             C@m             Bm

e|---------------|--------------||-----------------------------------------------|
b|---------------|--------------||-----------------------------------------------|
g|---------------|--------------||-----------------------------------------------|
d|---------------|--------------||-----------------------------------------------|
a|---------0-----|--------------||-----------------------------------------------|
a|-2-2-2-2---2-0-|-2------------||-----------------------------------------------|
  F#m

[Interlude] 
e|-----------9-----------|-9---------------------|-----------9------------|-9---------------------|
b|----10V---------10V----|-----------------------|----10V---------10V-----|-----------------------|
g|-11-----11---11-----11-|---11V-----------------|-11-----11---11-----11--|---11V-----------------|
d|-----------------------|-----------------------|------------------------|-----------------------|
a|-----------------------|-----------------------|------------------------|-----------------------|
e|-----------------------|-----------------------|------------------------|-----------------------|
  F#m

e|-----------9-----9S----|-2V-S------------------|------------9-----------|-9---------------------|
b|----10V---------10S----|-3V-S------------------|-----------------10V----|-----------------------|
g|-11-----11---11--------|-4V-S------------------|-9H10H11-11---11-----11-|---11V-----------------|
d|-----------------------|-----------------------|------------------------|-----------------------|
a|-----------------------|-----------------------|------------------------|-----------------------|
e|-----------------------|-----------------------|------------------------|-----------------------|
                          Bm

e|-----9-----9-----9S----|-S4V-------4-----------|-2V-------------------2S-|--9---------------14-||
b|----10----10----10S----|-S5V-------5--------5S-|-3V-------------------3S-|-10------------------||
g|-11----11----11--------|--6V----------------6S-|-4V-------------------4S-|-11------------------||
d|-----------------------|-----------------------|-------------------------|---------------------||
a|-----------------------|-----------------------|-------------------------|---------------------||
e|-----------------------|-----------------------|-------------------------|---------------------||
                          C#m                     Bm                        F#m

[Solo] 
e|-14-17B----------------|----------------------|----------------------14-|----------------17B-V--|
b|-----------------17B-V-|-17-14----------------|-------------------------|-17B-V-----------------|
g|-----------------------|-------16B-V----------|-16--14----14---16B-V----|-----------------------|
d|-----------------------|----------------------|--------16---------------|-----------------------|
a|-----------------------|----------------------|-------------------------|-----------------------|
e|-----------------------|----------------------|-------------------------|-----------------------|
  F#7

e|-(17)V--------14-------|--------14--------------------------------------|-----------------------|
b|-----------------17-14-|-17B-V-----17P14--------------------------------|---------------------2-|
g|-----------------------|-----------------16-16B-(16)P14--------16P14----|-16B-------------4B----|
d|-----------------------|--------------------------------16-----------16-|------16P14------------|
a|-----------------------|------------------------------------------------|------------16---------|
e|-----------------------|------------------------------------------------|-----------------------|
  B7                                                                       F#7

e|-2------------------------5-|-6-7-7B-----(7)V---------7B-|-7-5-7-5H7P5---5---------|
b|---5B-V-----------------7---|----------------------------|-------------7-5-7V------|
g|----------------------------|----------------------------|-------------------------|
d|----------------------------|----------------------------|-------------------------|
a|----------------------------|----------------------------|-------------------------|
e|----------------------------|----------------------------|-------------------------|
                               C#7                          B7

e|--------5H6-6-6-7P6-7P6-7P6-|-7B------------------------||-------------------------|
b|-(7)V-7---------------------|---------------------------||-------------------------|
g|----------------------------|---------------------------||-------------------------|
d|----------------------------|---------------------------||-------------------------|
a|----------------------------|---------------------------||-------------------------|
e|----------------------------|---------------------------||-------------------------|
  F#7

[Chorus] 
e|-------------------|-----------------|-------------------|
b|-------------------|-----------------|-------------------|
g|-------------------|-----------------|-------------------|
d|-------------------|-4-4-------------|-4-4---------------|
a|-----------4-4-7-4-|-----6-6-4-4-7-7-|-----7-7-4-6---4---|
e|-2-2-4S6-6---------|-----------------|-------------2-----|
  F#7

e|-------------------|-----------------|-------------------|
b|-------------------|-----------------|-------------------|
g|-------------------|-----------------|-------------------|
d|-----------4-4-6-4-|-7-7-6-4-4---4---|-------------------|
a|-2-2-4S6-6---------|-----------6-----|-----------4-4-6-6-|
e|-------------------|-----------------|-2-2-4S6-6---------|
  B7                                    F#7

e|-------------------|-----------------|-------------------|
b|-------------------|-----------------|-------------------|
g|-------------------|-----------------|-------------------|
d|-4-4---------------|-------4-4-6-----|-------4-4-7-6-----|
a|-----7-7-6-6-5-5---|-2-4-6-----------|-2-4H6-------------|
e|-------------------|-----------------|-------------------|
                      C#7               B7

e|-------------------|---------------------||--------------|
b|-------------------|---------------------||--------------|
g|-------------------|-------------2H4P2---||--------------|
d|-------------------|-4-------2-4-------4-||--------------|
a|-------4-6-6-------|---2H4-4-------------||--------------|
e|-2-4H6-------------|---------------------||--------------|
  F#7

[Outro] 
e|-------------------|-------------------|--------------------|-2-----------------|
b|-------------------|-------------------|--------------------|---2---------------|
g|-2B----------------|-------------------|-2B-----------------|-----2-------------|
d|-------------------|-------2-4-4-4-----|----4-4-4-----------|-------4-2---2-----|
a|-------------------|-2-(4)-------------|--------------------|-----------4-------|
e|-------------------|-------------------|--------------------|-------------------|
  F#m

e|-------------------|-------------------|--------------------|-------------------|
b|-------------------|-2-----------------|--------------------|-------------------|
g|-------------------|---2-------2-------|---2B---------------|-------------------|
d|-------------------|-----4-2-4---4-2---|-4------------------|---------2-2-------|
a|-0H2P0-------------|-------------------|--------------------|-4-4-4-4-----------|
e|-------------------|-------------------|--------------------|-------------------|
  Bm                                      F#m

e|------------------||-------------------|--------------------|-------------------|
b|------5-----------||-------------------|--------------------|-------------------|
g|-4S6V---6---------||-------------------|--------------------|-------------------|
d|------------------||-----FADE-OUT------|--------------------|-------------------|
a|------------------||-------------------|--------------------|-------------------|
e|------------------||-------------------|--------------------|-------------------|
  C#m
 
************************************

B  Bend
P  Pull-Off
H  Hammer-On
S  Slide
V  Vibrato

************************************

PlayLikeRockStar
YouTube: https://www.youtube.com/user/PlayLikeRockStar

************************************
Suggest correction
Give kudos to tab author, rate the tab!
1 2 3 4 5
comments
print report bad tab
guest
You may want to rate the tab now too:
select rating
Wanna post a correction for this tab? Suggest correction