Oops, an error
Loading. Please wait.

Nasty Letter Tab

version 1
version 1

Whole song

34,542 views 36 this week
2 commentsread comments
1 2 3 4 5
x 14
add to favorites
launch autoscroll
font size
0
reset
how to read this tab
guitar tuner
Autoscroll
slow
fast
+/-
esc
set tempo
stop
Nasty Letter
by Otis Taylor
No one has tabbed this so I decided to, it's off the movie shooter.
Tabbed by Jimmyv
jimmyv@live.com.au
Tuning: Standard

[Intro]
e|-----------------------------------------------------------------------|
B|-----------------------------------------------------------------------|
G|-----------------------------------------------------------------------|
D|-5H7-5-3-5---------5H7-5-3-5-5/10-------5h7-5-3-5--------------3-----0-|
A|-----------3--------------------------------------3------0-3-5---0h3---|
E|-----------------------------------------------------------------------|

Then you can just freestyle a bit if you want to play it like otis does.
Now this next bit isn't spot on but it's close.

just listen to the song to get the rhythm 0f this

   D                         C
e|---------------------------3-----3-3--3-3--3-3----|
B|-3-------------------------3-----3-3--3-3--3-3----|
G|-2---------------3-2-------0-----0-0--0-0--0-0----|
D|-0-----2-3-5-3-2-----------x-----x-x--x-x--x-x----|
A|---------------------------3-----2h3--2h3--2h3----|
E|--------------------------------------------------|

[Verse and/or chorus]
 All muted again just listen to the song to get the rhythm.
e|----------3--------3----------|
B|-3--------3--------3--------3-|
G|-2--------0--------0--------2-|
D|-0--------0--------0--------0-|
A|----------3--------2----------|
E|------------------------------|

[Lyrics]
Somebody wrote me
A nasty letter
But they didn't
Sign their name

I think I know
I know who wrote it
Well, I recognize
Recognize that hand

It's getting warm
Oh, so warm
So warm

Yeah that's right gabz I tabbed one!

************************************

| h  Hammer-on
| /  Slide up
| x  Dead note

************************************
Suggest correction
comments
print report bad tab
2 comments total.
+1 reply
fret fook 40 Apr 15, 2010 09:15 AM

Yes! nice tab. For the muted parts I play the D5, C5, and G5.

+1 reply
Iheartnirvana 668 Oct 17, 2010 08:26 AM

So warm on a winter's day

guest
You may want to rate the tab now too:
select rating
Wanna post a correction for this tab? Suggest correction