Oops, an error
Loading. Please wait.

Aquel Sol Tab

11 views 3 this week
no commentswrite comment
1 2 3 4 5
3 more votes to show rating
add to favorites
×
Save as Personal and add changes to this tab that will be seen only by you. Learn more ›
×
You can save this tab as Personal to edit and correct it or add notes. All changes will be seen only by you. Learn more »
save as personal
new!
launch autoscroll
font size
0
reset
how to read this tab
guitar tuner
Autoscroll
slow
fast
+/-
esc
set tempo
stop
Intro
           Em                                   Am
1.----------------------------------------------------------------------------
2.----------------------------------------------------------------------------
3.----------------------------------------------------------------------------
4.---------------------------------------------------------------------------0
5.------2----------------2-------------------0b2--0----0--0---0--0---0--0--2--
6.-0--3---0--0--0---0--3---0--0--0--0--3--0---------3------3-------3----------

      D                                    Em
1.-----------------------------------------------------------------------------
2.-----------------------------------------------------------------------------
3.-----------------------------------------------------------------------------
4.-0b2--0----0--0----0--2--2b4--2--0---2--4--2-----0-----0---0--2--2--0--------
5.---------2------2----------------------------0b2---0b2---2-------------2--0--
6.----------------------------------------------------------------------------0


Em
Dejando lo que queda

Pasó la noche afuera
         Am
Y se acostó en la oscuridad.

    D
Llevaba, a su manera,

Las ganas de dormirse
          Em
Y nunca despertar.


     Em
No creyó en las historias;

No es mentira su memoria,
        Am
Pero no regresará.

     D
Viviendo a su manera,

Solo queda juntar mas fuerzas
    Em
Y esperar.


Coro:
           G               D
Pero este sol no está mintiendo.

 F                                            C
Dejará que vuelva, dejará que todo vuelva a comenzar.

           G               D
Pero este sol no está mintiendo.

 F                                            C
Dejará que vuelva, dejará que todo vuelva a comenzar  (aunque no vuelva)


(Intro)x3


(Coro)x7
Suggest correction
Give kudos to tab author, rate the tab!
1 2 3 4 5
comments
print report bad tab
guest
Wanna post a correction for this tab? Suggest correction