Oops, an error
Loading. Please wait.

Hands Up bass

by Ottawan
238 views 3 this week
no commentswrite comment
1 2 3 4 5
3 more votes to show rating
add to favorites
×
Save as Personal and add changes to this tab that will be seen only by you. Learn more ›
×
You can save this tab as Personal to edit and correct it or add notes. All changes will be seen only by you. Learn more »
launch autoscroll
font size
0
reset
guitar tuner
edit
Autoscroll
slow
fast
+/-
esc
set tempo
stop
Author
Difficulty
Hands Up
Single released by the French duo Ottawan in 1981. Peaked at 
Number 3 in UK. Tab by bass50611. Nice and easy sing-a-long
However If I was playing this on stage I would put the key 
Up a semi-tone to help the guitarist.
Comments at bass254@btinternet.com 

Intro:                                         (Play This x3)
G|---------------------------------------------------------
D|-8---6--8---6-----------------6---4--6---4--6---4--6---4-
A|----8------8---6---4--6---4------6------6------6------6--
E|------------------6------6-------------------------------

Chorus 1:                                 (Play This Bit x2)
G|---------------------------------------------------------
D|-8---6--8---6-----------------6---4--6---4--6---4--6---4-
A|----8------8----6---4--6---4-----6------6------6------6--
E|-------------------6------6------------------------------

G|------------------------------------------------------
D|-----------------------------6---4--6---4-------------
A|-4---2--4---2--4---2--4---2-----6------6---6--6--6--6-
E|----4------4------4------4----------------------------

Verse:
G|--------------------------------------------------------
D|-6---4--6---4--6---4--6---4-----------------------------
A|----6------6------6------6---8---6--8---6--8---6--8---6-
E|--------------------------------8------8------8------8--

G|----------------------------
D|----------------------------
A|-6---4--6---4--6---4--6---4-
E|----6------6------6------6--

Repeat Verse:

Repeat Chorus 1:

Repeat Verse: (x2)

Repeat Chorus 1:

Bridge:
G|---------------------------------------------------------
D|---------------------------------------------------------
A|-3---1--3---1--3---1--3---1---8---6--8---6--8---6--8---6-
E|----3------3------3------3-------8------8------8------8--

G|---------------------------------------------------------
D|---------------------------------------------------------
A|-6---4--6---4--6---4--6---4---8---6--8---6--8---6--8---6-
E|----6------6------6------6-------8------8------8------8--

G|---------------------------------------------------------
D|-8---6--8---6--8---6--8---6---5---3--5---3--5---3--5---3-
A|----8------8------8------8-------5------5------5------5--
E|---------------------------------------------------------

G|----------------------------
D|----------------------------
A|-8---6--8---6--8---6--8---6-
E|----8------8------8------8--

Chorus 2:
G|----------------------------------------------------------
D|---------------3---1--3---1-------------------------------
A|-3---1--3---1-----3------3---1------1------1------1-------
E|----3------3--------------------1--3---1--3---1--3---1--3-


            
            
Suggest correction
Creating personal tab
Creating personal tab
You can edit any tab online and save it as your Personal.

You can edit, replace or remove any tab part or add personal notes – all changes will be seen only by you.

Personal tabs can be accessed anytime from any device, even offline.
Learn more »
Give kudos to tab author, rate the tab!
1 2 3 4 5
comments
print report bad tab
guest
You may want to rate the tab now too:
select rating
Wanna post a correction for this tab? Suggest correction